Guitar Tabs, Chords and Lyrics
Major upgrade!! After one year development the new version of Chordie is now online! Please give feedback.


Brown Eyed Girl  Lagwagon

Intro:
[G] [C]  
 
 --7--8----10----8---7----|12--13----15----13----12---------|
 --8-10----12---10---8----|13--15----17----15----13---------|
 -------------------------|---------------------------------| repeat
 -------------------------|---------------------------------|
 -------------------------|---------------------------------|
 -------------------------|---------------------------------|

[D] [G]  
 
 5---2---3---5------------|-3-------------------------------|
 7---3---5---7------------|-0-------------------------------|
 -------------------------|-0-----(now go into verse)-------|
 -------------------------|-0-------------------------------|
 -------------------------|-2-------------------------------|

Or You can play this
(you may find this is a little closer to the recorded version)
 
 --3--5--7--5--3---|-6--8--10--8--6-|
 ------------------|----------------|
 --4--5--5--5--4---|-7--8--10--8--6-| etc.
 ------------------|----------------|
 ------------------|----------------|
 ------------------|----------------|

Main: (You can play a mix of D and D7 to get sort of a fill at the end
of each verse)
[G] Hey, where did we [C]go [G] days when the [D]rain came
[G] Down in the h[C]ollow [G] playing a n[D]ew game
[G] Laughing, and a r[C]unning, hey, hey
[G] Skipping and a [D]jumping [G] in the misty mor[C]ning fog,
with [G]our hearts a t[D]humpin' and y[C]ou, [D] my brown eyed g[G]irl[Em]
[C] You, my [D] brown eyed g[G]irl
Whatever happened to Tuesday and so slow
Going down to the old mine
With a transistor radio
Standing in the sunlight laughing
Hiding behind a rainbow's wall
Slipping and a sliding
All aling the waterfall
With you, my brown eyed girl
You, my brown eyed girl
bridge:
[D7]Do you remember when we used to sing
[G]Sha la la [C]la la la[G] la la [D7]te da Just like that
[G]Sha la la [C]la la la[G] la la [D7]te da la t[G]e da
Now that I'm all on my own
I saw you just the other day
My, how you have grown
Cast my memory back there Lord
Sometimes I'm overcome thinkin' 'bout it
Laughing and a running hey, hey
Behind the stadium
With you, my brown eyed girl
You, my brown eyed girl
Play bridge again
END

Important: The song above is NOT stored on the Chordie server. The original song is hosted at www.guitaretab.com. Chordie works as a search engine and provides on-the-fly formatting. Chordie does not index songs against artists'/composers' will. To remove this song please click here.

Text color:
Chord color:
Chord grids: 
Font size:    
Page size: 

C D D7 Em G
Rate #1 of 1 versions

Login - add to songbook

SHARE PAGE  




You need to log in to post comments