Guitar Tabs, Chords and Lyrics
Major upgrade!! After one year development the new version of Chordie is now online! Please give feedback.


Coffee and Cigarettes  Lagwagon

Song: Coffee and Cigarettes
Artist: Lagwagon
Album: Trashed
As tabbed by Joe Muggah
= pick slide down
~ = let ring
v = vibrato
m = palm mute
Intro
 
 e-------------------------------------------------------------
 B-------------------------------------------------------------
 G------2----------------------------------------------------
 D--2h4----4--2----------------4---4~------------------------
 A---------------4-3-2-0--2----4---4~--------------------------
 E---------------------------0-2---2~--------------------------

Riff
 
 e-------------------------------------------------------------
 B-------------------------------------------------------------
 G------------------------------------------------2------------
 D------------------------------------2-----2h4-4----4m-2m-----
 A-----------------------0------0h2h4---4-----------------4m---
 E--2m-2m-2m-2m-2m-2m-2m----2----------------------------------

(continued)
 
 e-------------------------------------------------------------
 B-------------------------------------------------------------
 G-----------------------------------------------4~--6-6-6-6---
 D-----------------------------------------------4~--6-6-6-6---
 A--3m-2m-0m-4-----------------------0-----2-0---2~--4-4-4-4---
 E--------------2m-2m-2m-2m-2m-2m-2m----2------2---------------

(continued)
 
 e-------------------------------------------------------------
 B-------------------------------------------------------------
 G-------------------------------------------2-----------------
 D--------------------------------2----2h4-4----4m-2m----------
 A---------------------0----0h2h4---4-----------------4m-3m-2m-
 E--0m--2m-2m-2m-2m-2m---2-------------------------------------

(continued)
 
 e-------------------------------------------------------------
 B-------------------------------------------------------------
 G------------------------------------------4-----4-----4------
 D------------------------------------------4--2--4--2--4-2----
 A--0m-4-----------------------0-----2-0----2--2--2--2--2-2----
 E--------2m-2m-2m-2m-2m-2m-2m----2------2-----0-----0----0----

Verse
 
 e-------------------------------------------------------------
 B-------------------------------------------------------------
 G---------7-7-----------4m-4m-4m-4m-------------7-7-----------
 D--4-4----7-7----7-7----4m-4m-4m-4m-2----4-4----7-7----7-7----
 A--4-4----5-5----7-7----2m-2m-2m-2m-2----4-4----5-5----7-7----
 E--2-2-----------5-5----------------0----2-2-----------5-5----

(continued)
 
 e-------------------------------------------------------------
 B-------------------------------------------------------------
 G--4m--4m--4m------------7-7-----------4m-4m-4m-4m------------
 D--4m--4m--4m-2----4-4---7-7----7-7----4m-4m-4m-4m-2----4-4---
 A--2m--2m--2m-2----4-4---5-5----7-7----2m-2m-2m-2m-2----4-4---
 E-------------0----2-2----------5-5----------------0----2-2---

(continued)
 
 e-------------------------------------------------------------
 B-------------------------------------------------------------
 G--7-7--------------------------------------------------------
 D--7-7----7-7-7-7-7-7-7-7-------------------------------------
 A--5-5----7-7-7-7-7-7-7-7-------------------------------------
 E---------5-5-5-5-5-5-5-5-------------------------------------

Chorus A (Guitar 1, each hit 2 times)
 
 e-------------------------------------------------------------
 B-------------------------------------------------------------
 G--7-7-7-7-7------------------------6-6-6-6-6-----------------
 D--7-7-7-7-7--4-4-4-4-4--2-2-2-2-2--6-6-6-6-6-----------------
 A--5-5-5-5-5--4-4-4-4-4--2-2-2-2-2--4-4-4-4-4-----------------
 E-------------2-2-2-2-2--0-0-0-0-0----------------------------

Chorus B (Guitar 2, each hit 2 times)
 
 e-------------------------------------------------------------
 B-------------------------------------------------------------
 G-14-14-14-14-14--11-11-11-11-11--13-13-13-13-13--16-16-13-13-
 D--x--x--x--x--x---x--x--x--x--x---x--x--x--x--x---x--x--x--x-
 A-12-12-12-12-12---9--9--9--9--9--11-11-11-11-11--14-14-11-11-
 E-------------------------------------------------------------

Fill A (Guitar 1) Fill B (Guitar 2)
 
 e----------------------|--------------------------------------
 B----------------------|--------------------------------------
 G--7-7-7-7-7--9-9-9-9--|--14-14-14-14-14--16-16-16-16---------
 D--7-7-7-7-7--9-9-9-9--|---x--x--x--x--x---x--x--x--x---------
 A--5-5-5-5-5--7-7-7-7--|--12-12-12-12-12--14-14-14-14---------
 E----------------------|--------------------------------------

Bridge
 
 e-------------------------------------------------------------
 B-------------------------------------------------------------
 G-------------------------------------------------------------
 D--4----4-4--------4--------2-------2----4----4-4--------2~---
 A--4----4-4-4--4---4--2-3-4---4-3-2-2----4----4-4-4--4---2~---
 E--2----2-2-5--5---2----------------0----2----2-2-5--5---0~---
 e-------------------------------------------------------------
 B-------------------------------------------------------------
 G-----------------------------------------------------x-7-x-6-
 D--x-7---4----4-4-------2---4-4~----4----4-4-------2--x-7-x-6-
 A--x-7---4----4-4-4--4--2---4-4~----4----4-4-4--4--2--x-5-x-4-
 E--x-5---2----2-2-5--5--0---2-2~----2----2-2-5--5--0----------

Solo A (Guitar 1)
 
 e----------9--------------------------12/14v---14h16h17p16p14-
 B----------9--12------------10h12p10--------------------------
 G--9/11v---------11v---9h11-----------------------------------
 D-------------------------------------------------------------
 A-------------------------------------------------------------
 E-------------------------------------------------------------

(continued)
 
 e--12--14^---------------------------------------------------
 B------------14--14--14--14p12p10-----------------------------
 G-------------------------------------------------------------
 D-------------------------------------------------------------
 A-------------------------------------------------------------
 E-------------------------------------------------------------

Solo B (Guitar 2)
 
 e-------------------------------------------------------------
 B-14h15h17p15-14h15h17p15-14h15h17p15-14h15h17p15-14h15h17p15-
 G-------------------------------------------------------------
 D-------------------------------------------------------------
 A-------------------------------------------------------------
 E-------------------------------------------------------------

(continued)
 
 e-------------------------------------------------------------
 B--14h15h17p15-14h15h17p15-14h15h17p15h17p15---17/19v---------
 G-------------------------------------------------------------
 D-------------------------------------------------------------
 A-------------------------------------------------------------
 E-------------------------------------------------------------

(continued)
 
 e--14h16h17p16p14--17/19v-p17p14--12/14v----------------------
 B------------------------------------------14-12-10--10---14--
 G-------------------------------------------------------------
 D-------------------------------------------------------------
 A-------------------------------------------------------------
 E-------------------------------------------------------------

(continued)
 
 e-------------------------------------------------------------
 B--14-p12p10--------------------------------------------------
 G-------------11v--------------------------------------------
 D-------------------------------------------------------------
 A-------------------------------------------------------------
 E-------------------------------------------------------------

Intro
Riff
Verse
Chorus A, B
Riff
Verse
Chorus A, B
Bridge
Verse, Solo 1
Verse, Solo 2
Chorus A, B
Riff
===========
Lagwagon - Coffee and Cigarettes
Jeremy McCully (webmaster@)
Tuning: Standard (E A D G B E)
Distortion throughout
intro
 
 E|--------------------------------------------------------||
 B|--------------------------------------------------------||
 G|-----2-----------------------------pick-slide-----------||
 D|-2h4---4-2--------------------------------------------||
 A|-----------4-3-2-0-2--4-------4-----------------------||
 E|--------------------0-2-------2-------------------------||

^stacco ^let ring
intro 2
 
 E|--------------------------------------------------------||
 B|--------------------------------------------------------||
 G|----------------------------------2---------------------||
 D|-------------2----------2---2h3h4---4-------------------||
 A|---4-4-4-4-4-0----0h2h4---4-----------4-2-0-2-----------||
 E|-0-2-2-2-2-2----2---------------------------------------||

pm......... pm.....
 
 E|--------------------------------------------------------||
 B|--------------------------------------------------------||
 G|--------------------------------------------------------||
 D|-------------2----------4---------6666------------------||
 A|---4-4-4-4-4-0----2h3h4-2---------4444------------------||
 E|-0-2-2-2-2-2----2---------------------------------------||

pm......... ^let ring
 
 E|--------------------------------------------------------||
 B|--------------------------------------------------------||
 G|----------------------------------2---------------------||
 D|-------------2----------2---2h3h4---4-------------------||
 A|---4-4-4-4-4-0----0h2h4---4-----------4-2-0-2-----------||
 E|-0-2-2-2-2-2----2---------------------------------------||

pm......... pm.....
 
 E|--------------------------------------------------------||
 B|--------------------------------------------------------||
 G|--------------------------------------------------------||
 D|-------------2----------4---4---4-----------------------||
 A|---4-4-4-4-4-0----2h3h4-2-2-2-2-2-2---------------------||
 E|-0-2-2-2-2-2----2---------0---0---0---------------------||

pm.........
verse
 
 E|--------------------------------------------------------||
 B|--------------------------------------------------------||
 G|--------------------------------------------------------||
 D|-------7-77-------44444-------7-77------44444-----------||
 A|-4-4---5-55--7-77-222222--4-4-7-55-7-77-222222----------||
 E|-2-2---------5-55------0--2-2------5-55------0----------||

pm... pm...
 
 E|--------------------------------------------------------||
 B|--------------------------------------------------------||
 G|--------------------------------------------------------||
 D|-------7-77-------44444-------7-77----------------------||
 A|-4-4---5-55--7-77-222222--4-4-5-55-7-777777777----------||
 E|-2-2---------5-55------0--2-2------5-555555555----------||

pm...
chorus
 
 E|------------------------------------------------------------------------||
 B|------------------------------------------------------------------------||
 G|------------------------------------------------------------------------||
 D|-7777777777777777--------------------------------6666666666666666-------||
 A|-5555555555555555444444444444444422222222222222224444444444444444-------||
 E|-----------------22222222222222220000000000000000-----------------------||
 E|------------------------------------------------------------------------||
 B|------------------------------------------------------------------------||
 G|------------------------------------------------------------------------||
 D|-7777777777777777--------------------------------6666666666666666-------||
 A|-5555555555555555444444444444444422222222222222224444444444444444-------||
 E|-----------------22222222222222220000000000000000-----------------------||

intro 2 riff again
 
 E|--------------------------------------------------------||
 B|--------------------------------------------------------||
 G|----------------------------------2---------------------||
 D|-------------2----------2---2h3h4---4-------------------||
 A|---4-4-4-4-4-0----0h2h4---4-----------4-2-0-2-----------||
 E|-0-2-2-2-2-2----2---------------------------------------||

pm......... pm.....
 
 E|--------------------------------------------------------||
 B|--------------------------------------------------------||
 G|--------------------------------------------------------||
 D|-------------2----------4---------6666------------------||
 A|---4-4-4-4-4-0----2h3h4-2---------4444------------------||
 E|-0-2-2-2-2-2----2---------------------------------------||

pm......... ^let ring
 
 E|--------------------------------------------------------||
 B|--------------------------------------------------------||
 G|----------------------------------2---------------------||
 D|-------------2----------2---2h3h4---4-------------------||
 A|---4-4-4-4-4-0----0h2h4---4-----------4-2-0-2-----------||
 E|-0-2-2-2-2-2----2---------------------------------------||

pm......... pm.....
 
 E|--------------------------------------------------------||
 B|--------------------------------------------------------||
 G|--------------------------------------------------------||
 D|-------------2----------4---4---4-----------------------||
 A|---4-4-4-4-4-0----2h3h4-2-2-2-2-2-2---------------------||
 E|-0-2-2-2-2-2----2---------0---0---0---------------------||

pm.........
verse 2
 
 E|--------------------------------------------------------||
 B|--------------------------------------------------------||
 G|--------------------------------------------------------||
 D|-------7-77-------44444-------7-77------44444-----------||
 A|-4-4---5-55--7-77-222222--4-4-7-55-7-77-222222----------||
 E|-2-2---------5-55------0--2-2------5-55------0----------||

pm... pm...
 
 E|--------------------------------------------------------||
 B|--------------------------------------------------------||
 G|--------------------------------------------------------||
 D|-------7-77-------44444-------7-77----------------------||
 A|-4-4---5-55--7-77-222222--4-4-5-55-7-777777777----------||
 E|-2-2---------5-55------0--2-2------5-555555555----------||

pm...
interlude
 
 E|--------------------------------------------------------||
 B|--------------------------------------------------------||

G|-14141414141414141414141414-11111111111111111111111111--||
 
 D|--x-x-x-x-x-x-x-x-x-x-x-x-x--x-x-x-x-x-x-x-x-x-x-x-x-x--||
 A|-12121212121212121212121212--9-9-9-9-9-9-9-9-9-9-9-9-9--||
 E|--------------------------------------------------------||
 E|--------------------------------------------------------||
 B|--------------------------------------------------------||

G|-13131313131313131313131313-16161616161613131313131313--||
 
 D|--x-x-x-x-x-x-x-x-x-x-x-x-x--x-x-x-x-x-x-x-x-x-x-x-x-x--||

A|-11111111111111111111111111-14141414141411111111111111--||
 
 E|--------------------------------------------------------||
 E|--------------------------------------------------------||
 B|--------------------------------------------------------||

G|-14141414141414141414141414-11111111111111111111111111--||
 
 D|--x-x-x-x-x-x-x-x-x-x-x-x-x--x-x-x-x-x-x-x-x-x-x-x-x-x--||
 A|-12121212121212121212121212--9-9-9-9-9-9-9-9-9-9-9-9-9--||
 E|--------------------------------------------------------||
 E|--------------------------------------------------------||
 B|--------------------------------------------------------||

G|-13131313131313131313131313-16161616161613131313131313--||
 
 D|--x-x-x-x-x-x-x-x-x-x-x-x-x--x-x-x-x-x-x-x-x-x-x-x-x-x--||

A|-11111111111111111111111111-14141414141411111111111111--||
 
 E|--------------------------------------------------------||
 E|--------------------------------------------------------||
 B|--------------------------------------------------------||
 G|-14141414141416161616161616-----------------------------||
 D|--x-x-x-x-x-x-x-x-x-x-x-x-x-----------------------------||
 A|-12121212121214141414141414-----------------------------||
 E|--------------------------------------------------------||

interlude 2 (half-speed feeling)
 
 E|--------------------------------------------------------||
 B|--------------------------------------------------------||
 G|--------------------------------------------------------||
 D|----------------2---------------------------------------||
 A|-4-7-7-4--0-2-4---4-2-0-2--4-7-7-2-------------7--------||
 E|-2x5-5-2----------------0--2x5-5-0-----------0-5--------||

^let ring pm
 
 E|--------------------------------------------------------||
 B|--------------------------------------------------------||
 G|---------------------------------------------7---7------||
 D|---------------------------------------------x---x------||
 A|-4-7-7-2--4-4--(bass-only)-4-7-7-2-----------5---5------||
 E|-2x5-5-0--2-2--------------2x5-5-0----------x---x-------||

^let ring pm pm
 
 E|--------------------------------------------------------||
 B|--------------------------------------------------------||
 G|--------------------------------------------------------||
 D|----------------2---------------------------------------||
 A|-4-7-7-4--0-2-4---4-2-0-2--4-7-7-2-------------7--------||
 E|-2x5-5-2----------------0--2x5-5-0-----------0-5--------||

^let ring pm
 
 E|--------------------------------------------------------||
 B|--------------------------------------------------------||
 G|---------------------------------------------7---7------||
 D|---------------------------------------------x---x------||
 A|-4-7-7-2--4-4--(bass-only)-4-7-7-2-----------5---5------||
 E|-2x5-5-0--2-2--------------2x5-5-0----------x---x-------||

^let ring pm pm
solo (very rough)
guitar 2 plays verse riff
 
 -------------------------------12-14^---14h15p14-12^----
 ----------------------12h14h15--------------------------
 --------14h16p14-12-14----------------------------------
 -14/16v-------------------------------------------------
 --------------------------------------------------------
 --------------------------------------------------------
 -12h14h12-----------------------------------------------
 ----------12^-------------------------------------------
 --------------14-14-14p12/14----------------------------
 --------------------------------------------------------
 --------------------------------------------------------
 --------------------------------------------------------
 ----------------------------------------------------12--
 -14h16p14h17p14h16p14h17p14h16p14h17p14h16p14h17p-------
 --------------------------------------------------------
 --------------------------------------------------------
 --------------------------------------------------------
 --------------------------------------------------------
 -14h16h17p16p14h16h17p16p14h16h17p16p14h16h17p16p14-----
 --------------------------------------------------------
 --------------------------------------------------------
 --------------------------------------------------------
 --------------------------------------------------------
 --------------------------------------------------------
 -15-12--------------------------------------------------
 -------15-12--------------------------------------------
 -------------16^-14h16p14-------------------------------
 --------------------------16----------------------------
 --------------------------------------------------------
 --------------------------------------------------------

play interlude 1 twice without last bar
play intro 2
end on: F#5 F#5
===========Lagwagon - Coffee And Ciggerates
Submitted By: Nick
EMail: plaidsk8erpunk7@yahoo.com
intro:
 
 e-|-------------------------------------------------------------------------
 B-|-------------------------------------------------------------------------
 G-|-----2---------------------------------------------------2---------------
 D-|-2-4---4-2-------------------------------------2---2-3-4---4-3-2---------
 A-|-----------4-3-2-0-2------4--4-4-4-4-0-4-2-4-4---4---------------4-2-0---
 E-|---------------------0-2--2--2-2-2-2---2---------------------------------
 e-|-------------------------------------------------------------------------
 B-|-------------------------------------------------------------------------
 G-|-----------------------------------------------------------2-------------
 D-|-------------------4-6-6-6-----------------------2---2-3-4---4-3-2-------
 A-|-4-4-4-4-0-4-0-0-0-2-4-4-4-2---4-4-4-4-0-4-2-4-4---4---------------4-2-0-
 E-|-2-2-2-2---2---------------0---2-2-2-2---2-------------------------------
 e-|-------------------------------|
 B-|-------------------------------|
 G-|-------------------------------|
 D-|-------------------4---4---4---|
 A-|-4-4-4-4-0-4-0-0-0-2-2-2-2-2-2-|
 E-|-2-2-2-2---2---------0---0---0-|

verse:
 
 e-|-------------------------------------------------------------------------
 B-|-------------------------------------------------------------------------
 G-|-------------------------------------------------------------------------
 D-|-----7-7-----4-4-------7-7-----4-4-------7-7-----4-4-------7-7-----------
 A-|-4-4-5-5-7-7-2-2-2-4-4-5-5-7-7-2-2-2-4-4-5-5-7-7-2-2-2-4-4-5-5-7-7-7-7-7-
 E-|-2-2-----5-5-----0-2-2-----5-5-----0-2-2-----5-5-----0-2-2-----5-5-5-5-5-

Chorus:
 
 e-|-------|-----------------------------------------------------------------
 B-|-------|-----------------------------------------------------------------
 G-|-------|-----------------------------------------------------------------
 D-|-------|-7-7-7-7-7-7-7-7---------------------------------6-6-6-6-6-6-6-6-
 A-|-7-7-7-|-5-5-5-5-5-5-5-5-4-4-4-4-4-4-4-4-2-2-2-2-2-2-2-2-4-4-4-4-4-4-4-4-
 E-|-5-5-5-|-----------------2-2-2-2-2-2-2-2-0-0-0-0-0-0-0-0-----------------
 e-|-----------------------------------------------------------------|
 B-|-----------------------------------------------------------------|
 G-|-----------------------------------------------------------------|
 D-|-7-7-7-7-7-7-7-7---------------------------------6-6-6-6-6-6-6-6-|
 A-|-5-5-5-5-5-5-5-5-4-4-4-4-4-4-4-4-2-2-2-2-2-2-2-2-4-4-4-4-4-4-4-4-|
 E-|-----------------2-2-2-2-2-2-2-2-0-0-0-0-0-0-0-0-----------------|

second/third chorus:
 
 e-|-------------------------------------------------------------------------
 B-|-------------------------------------------------------------------------
 G-|-14-14-14-14-14-14-14-14-11-11-11-11-11-11-11-11-13-13-13-13-13-13-13-13-
 D-|-xx-xx-xx-xx-xx-xx-xx-xx--x--x--x--x--x--x--x--x-xx-xx-xx-xx-xx-xx-xx-xx-
 A-|-12-12-12-12-12-12-12-12--9--9--9--9--9--9--9--9-11-11-11-11-11-11-11-11-
 E-|-------------------------------------------------------------------------
 e-|-------------------------------------------------------------------------
 B-|-------------------------------------------------------------------------
 G-|-16-16-16-16-13-13-13-13-14-14-14-14-14-14-14-14-11-11-11-11-11-11-11-11-
 D-|-xx-xx-xx-xx-xx-xx-xx-xx-xx-xx-xx-xx-xx-xx-xx-xx--x--x--x--x--x--x--x--x-
 A-|-14-14-14-14-11-11-11-11-12-12-12-12-12-12-12-12--9--9--9--9--9--9--9--9-
 E-|-------------------------------------------------------------------------
 e-|-------------------------------------------------|-----------------------|
 B-|-------------------------------------------------|-----------------------|
 G-|-13-13-13-13-13-13-13-13-16-16-16-16-13-13-13-13-|14-14-14-14-16-16-16-16|
 D-|-xx-xx-xx-xx-xx-xx-xx-xx-xx-xx-xx-xx-xx-xx-xx-xx-|xx-xx-xx-xx-xx-xx-xx-xx|
 A-|-11-11-11-11-11-11-11-11-14-14-14-14-11-11-11-11-|12-12-12-12-14-14-14-14|
 E-|-------------------------------------------------|-----------------------|

bridge:
 
 e-|----------------------------------------------------------|
 B-|----------------------------------------------------------|
 G-|------------------------------------------------------7-7-|
 D-|---2-2-------2----------2-2---2----2-2----------2-2---x-x-|
 A-|-4-0-0-4-2-4---4-2----4-0-0-4-0--4-0-0-2-4-4--4-0-0-2-5-5-|
 E-|-2-----2-----------0--2-----2----2-----0-2-2--2-----0-----|

===========
Lagwagon - Coffee And Cigarettes
Submitted By: hardcore junk
EMail: hardcore_junk@hotmail.com
INTRO:
[F#] [A]  
 
 ----------------------------------------------------------------
 ----------------------------------------------------------------
 ----2-----------------------------------------------------------
 2-4-------4-----2-----------------------------------4-----------
 ----------------------4-----3---2---0-----2---------4-----------
 ------------------------------------------------0---2----------- 

F# Do the "wroom" with your pick
 
 --------------------------------
 --------------------------------
 --------------------------------
 4-------------------------------
 4-------------------------------
 2------------------------------- 

MAIN RIFF:
[F#]  
 
 ----------------------------------------------------------------
 ----------------------------------------------------------------
 ----------------------------------------------2-----------------
 ------------------------------2---------2/4-x-------4-----------
 --------------0---------0/2/4-------4-------------------420/4-
 0-2-2-2-2-2-2-------2------------------------------------------- 

[F#] [B] [C#]  
 
 ----------------------------------------------------------------
 ----------------------------------------------------------------
 ------------------------------4-----------------6-6-6-6-x-------
 ------------------------------4-----------------6-6-6-6-x-------
 --------------0---------0/2---2-----------------4-4-4-4-x-------
 0-2-2-2-2-2-2-------2---------------------------------------0~~~ 

[F#]  
 
 ----------------------------------------------------------------
 ----------------------------------------------------------------
 ----------------------------------------------2-----------------
 ------------------------------2---------2/4-x-------4-----------
 --------------0---------0/2/4-------4-------------------420/4-
 0-2-2-2-2-2-2-------2------------------------------------------- 

[F#]  
 
 ------------------------------
 ------------------------------
 ------------------------------
 ------------------------------
 --------------0---------0/2---
 0-2-2-2-2-2-2-------2--------- 

[B] [E] [B] [E] [B] [E]  
 
 ----------------------------------------------------------------
 ----------------------------------------------------------------
 4-----------------------4-----------------------4---------------
 4-----------2-----------4-----------2-----------4-------2-------
 2-----------2-----------2-----------2-----------2-------2-------
 ------------0-----------------------0-------------------0------- 

VERSE 1 PART 1:
[F#] [D] [A] [B] [E]  
 
 ----------------------------------------------------------------
 ----------------------------------------------------------------
 ------------7-------7-------2-------2-----------4---------------
 4---4-------7-------7-------2-------2-----------4-x-x-x-x-------
 4---4-------5-------5-------0-------0-----------2-2-2-2-2-2-----
 2---2-----------------------------------------------------0----- 

[F#] [D] [A] [B] [E]  
 
 ----------------------------------------------------------------
 ----------------------------------------------------------------
 ------------7-------7-------2-------2---------------------------
 4---4-------7-------7-------2-------2-----------x---x---x-------
 4---4-------5-------5-------0-------0-----------2---2---2-2-----
 2---2-----------------------------------------------------0----- 

[F#] [D] [A] [B] [E]  
 
 ----------------------------------------------------------------
 ----------------------------------------------------------------
 ------------7-------7-------2-------2-----------4---------------
 4---4-------7-------7-------2-------2-----------4-x-x-x-x-------
 4---4-------5-------5-------0-------0-----------2-2-2-2-2-2-----
 2---2-----------------------------------------------------0----- 

[F#] [D] [A]  
 
 ----------------------------------------------------------------
 ----------------------------------------------------------------
 ------------7-------7-------2-------2---2-------2-------2---2---
 4---4-------7-------7-------2-------2---2-------2-------2---2---
 4---4-------5-------5-------0-------0---0-------0-------0---0---
 2---2----------------------------------------------------------- 

VERSE 1 PART 2 (play both lines two times):
[D] [F#]  
 
 ----------------------------------------------------------------
 ----------------------------------------------------------------
 7---7-------7---7---7-------7-----------------------------------
 7---7-------7---7---7-------7---4---4-------4---4---4-------4---
 5---5-------5---5---5-------5---4---4-------4---4---4-------4---
 --------------------------------2---2-------2---2---2-------2--- 

[E] [C#]  
 
 ----------------------------------------------------------------
 ----------------------------------------------------------------
 --------------------------------6---6-------6---6---6---6---6---
 2---2-------2---2---2---2---2---6---6-------6---6---6---6---6---
 2---2-------2---2---2---2---2---4---4-------4---4---4---4---4---
 0---0-------0---0---0---0---0----------------------------------- 

MAIN RIFF.
VERSE 2 like VERSE 1, both parts. In the latter-one a second guitar
plays a quint for the chord, but don't let it bother. I wont!
SOMETHING (all four lines two times):
[F#] [A] [F#] [E]  
 
 ----------------------------------------------------------------
 ----------------------------------------------------------------
 ----------------------------------------------------------------
 4-------4-------2-----2-----4-----------x---------2-------2-----
 4-------4-------0-----0-----4-----------x---2/3/4---4-3-2-2-----
 2-------2---0-2-------------2-----------x-----------------0----- 

[F#] [A] [E] [A]  
 
 ----------------------------------------------------------------
 ----------------------------------------------------------------
 ------------------------------------------------------------2---
 4-------4-------2-----2-----2-----------------------------x-2---
 4-------4-------0-----0-----2-----------------------------x-0---
 2-------2---0-2-------------0-----------------------------x----- 

[F#] [A] [E] [F#]  
 
 ----------------------------------------------------------------
 ----------------------------------------------------------------
 ----------------------------------------------------------------
 4-------4-------2-----2-----2-------4---4---x-------------------
 4-------4-------0-----0-----2-------4---4---x-------------------
 2-------2---0-2-------------0-------2---2---x------------------- 

[F#] [A] [E] [D] [D7]  
 
 ----------------------------------------------------------------
 ----------------------------------------------------------------
 ------------------------------------------------x-7-----x-7-----
 4-------4-------2-----2-----2-------------------x-7-----x-7-----
 4-------4-------0-----0-----2-------------------x-5-----x-4-----
 2-------2---0-2-------------0----------------------------------- 

SOLO chords as VERSE 1 PART 1.
VERSE 1 PART 2 two times the whole stuff, wich equales four times
the two lines.
MAIN RIFF.
===========Lagwagon - Coffee And Cigarettes
Submitted By: Parker
EMail: coma210@hotmail.com
INTRO:
[F#] [A] 
 
 ----------------------------------------------------------------
 ----------------------------------------------------------------
 ----2-----------------------------------------------------------
 2-4-------4-----2-----------------------------------4-----------
 ----------------------4-----3---2---0-----2---------4-----------
 ------------------------------------------------0---2-----------

F# Do the "wroom" with your pick
 
 --------------------------------
 --------------------------------
 --------------------------------
 4-------------------------------
 4-------------------------------
 2------------------------------- MAIN RIFF:

[F#]  
 
 ----------------------------------------------------------------
 ----------------------------------------------------------------
 ----------------------------------------------2-----------------
 ------------------------------2---------2/4-x-------4-----------
 --------------0---------0/2/4-------4-------------------420/4-
 0-2-2-2-2-2-2-------2-------------------------------------------

[F#] [B] [C#] 
 
 ----------------------------------------------------------------
 ----------------------------------------------------------------
 ------------------------------4-----------------6-6-6-6-x-------
 ------------------------------4-----------------6-6-6-6-x-------
 --------------0---------0/2---2-----------------4-4-4-4-x-------
 0-2-2-2-2-2-2-------2---------------------------------------0~~~

[F#]  
 
 ----------------------------------------------------------------
 ----------------------------------------------------------------
 ----------------------------------------------2-----------------
 ------------------------------2---------2/4-x-------4-----------
 --------------0---------0/2/4-------4-------------------420/4-
 0-2-2-2-2-2-2-------2-------------------------------------------

[F#]  
 
 ------------------------------
 ------------------------------
 ------------------------------
 ------------------------------
 --------------0---------0/2---
 0-2-2-2-2-2-2-------2---------

[B] [E] [B] [E] [B] [E] 
 
 ----------------------------------------------------------------
 ----------------------------------------------------------------
 4-----------------------4-----------------------4---------------
 4-----------2-----------4-----------2-----------4-------2-------
 2-----------2-----------2-----------2-----------2-------2-------
 ------------0-----------------------0-------------------0------- VERSE 1 PART 1:

[F#] [D] [A] [B] [E] 
 
 ----------------------------------------------------------------
 ----------------------------------------------------------------
 ------------7-------7-------2-------2-----------4---------------
 4---4-------7-------7-------2-------2-----------4-x-x-x-x-------
 4---4-------5-------5-------0-------0-----------2-2-2-2-2-2-----
 2---2-----------------------------------------------------0-----

[F#] [D] [A] [B] [E] 
 
 ----------------------------------------------------------------
 ----------------------------------------------------------------
 ------------7-------7-------2-------2---------------------------
 4---4-------7-------7-------2-------2-----------x---x---x-------
 4---4-------5-------5-------0-------0-----------2---2---2-2-----
 2---2-----------------------------------------------------0-----

[F#] [D] [A] [B] [E] 
 
 ----------------------------------------------------------------
 ----------------------------------------------------------------
 ------------7-------7-------2-------2-----------4---------------
 4---4-------7-------7-------2-------2-----------4-x-x-x-x-------
 4---4-------5-------5-------0-------0-----------2-2-2-2-2-2-----
 2---2-----------------------------------------------------0-----

[F#] [D] [A]  
 
 ----------------------------------------------------------------
 ----------------------------------------------------------------
 ------------7-------7-------2-------2---2-------2-------2---2---
 4---4-------7-------7-------2-------2---2-------2-------2---2---
 4---4-------5-------5-------0-------0---0-------0-------0---0---
 2---2----------------------------------------------------------- VERSE 1 PART 2 (play both lines two times):

[D] [F#]  
 
 ----------------------------------------------------------------
 ----------------------------------------------------------------
 7---7-------7---7---7-------7-----------------------------------
 7---7-------7---7---7-------7---4---4-------4---4---4-------4---
 5---5-------5---5---5-------5---4---4-------4---4---4-------4---
 --------------------------------2---2-------2---2---2-------2---

[E] [C#]  
 
 ----------------------------------------------------------------
 ----------------------------------------------------------------
 --------------------------------6---6-------6---6---6---6---6---
 2---2-------2---2---2---2---2---6---6-------6---6---6---6---6---
 2---2-------2---2---2---2---2---4---4-------4---4---4---4---4---
 0---0-------0---0---0---0---0----------------------------------- MAIN RIFF.

VERSE 2 like VERSE 1, both parts. In the latter-one a second guitar
plays a quint for the chord, but don't let it bother. I wont!
SOMETHING (all four lines two times):
[F#] [A] [F#] [E] 
 
 ----------------------------------------------------------------
 ----------------------------------------------------------------
 ----------------------------------------------------------------
 4-------4-------2-----2-----4-----------x---------2-------2-----
 4-------4-------0-----0-----4-----------x---2/3/4---4-3-2-2-----
 2-------2---0-2-------------2-----------x-----------------0-----

[F#] [A] [E] [A] 
 
 ----------------------------------------------------------------
 ----------------------------------------------------------------
 ------------------------------------------------------------2---
 4-------4-------2-----2-----2-----------------------------x-2---
 4-------4-------0-----0-----2-----------------------------x-0---
 2-------2---0-2-------------0-----------------------------x-----

[F#] [A] [E] [F#] 
 
 ----------------------------------------------------------------
 ----------------------------------------------------------------
 ----------------------------------------------------------------
 4-------4-------2-----2-----2-------4---4---x-------------------
 4-------4-------0-----0-----2-------4---4---x-------------------
 2-------2---0-2-------------0-------2---2---x-------------------

[F#] [A] [E] [D] [D7] 
 
 ----------------------------------------------------------------
 ----------------------------------------------------------------
 ------------------------------------------------x-7-----x-7-----
 4-------4-------2-----2-----2-------------------x-7-----x-7-----
 4-------4-------0-----0-----2-------------------x-5-----x-4-----
 2-------2---0-2-------------0----------------------------------- SOLO chords as VERSE 1 PART 1. VERSE 1 PART 2 two times the whole stuff, wich equales four times

the two lines. MAIN RIFF.

Important: The song above is NOT stored on the Chordie server. The original song is hosted at www.guitaretab.com. Chordie works as a search engine and provides on-the-fly formatting. Chordie does not index songs against artists'/composers' will. To remove this song please click here.

Text color:
Chord color:
Chord grids: 
Font size:    
Page size: 

A B C# D D7 E F#
Rate #1 of 1 versions

Login - add to songbook

SHARE PAGE  




You need to log in to post comments