Guitar Tabs, Chords and Lyrics
Major upgrade!! After one year development the new version of Chordie is now online! Please give feedback.


Dis'Chords  Lagwagon

INTRO PART 1 (muted all the time, except the high flute-tones,
play both lines two times):
[A] [E]  
 
 ----------------------------------------------------------------|
 ------------------------10--------------------------------------|
 --------------------------------------------------------9-------|
 ----------------------------7-----------------------------------|
 12--12--12--12--12--12----------7---7---7---7---7---7-------7---|
 ----------------------------------------------------------------|

[F] [C]  
 
 ----------------------------------------------------------------|
 ----------------------------------------------------------------|
 ------------------------10----------------------x---x---5---5---|
 ------------------------------------x---x---5---5---5---5---5---|
 8---8---8---8---8---8-------8---3---3---3---3---3---3---3---3---|
 ----------------------------------------------------------------|

INTRO PART 2 (play open):
[A] [E]  
 
 ----------------------------------------------------------------|
 ----------------------------------------------------------------|
 14--14--14--14--14--14--14--14--9---9---9---9---9---9---9---9---|
 14--14--14--14--14--14--14--14--9---9---9---9---9---9---9---9---|
 12--12--12--12--12--12--12--12--7---7---7---7---7---7---7---7---|
 ----------------------------------------------------------------|

[F] [C]  
 
 ----------------------------------------------------------------|
 ----------------------------------------------------------------|
 10--10--10--10--10--10--10--10--5---5---5---5---5---5---5---5---|
 10--10--10--10--10--10--10--10--5---5---5---5---5---5---5---5---|
 8---8---8---8---8---8---8---8---3---3---3---3---3---3---3---3---|
 ----------------------------------------------------------------|

[A] [E]  
 
 ----------------------------------------------------------------|
 ----------------------------------------------------------------|
 14--14--14--14--14--14--14--14--9---9---9---9---9---9---9---9---|
 14--14--14--14--14--14--14--14--9---9---9---9---9---9---9---9---|
 12--12--12--12--12--12--12--12--7---7---7---7---7---7---7---7---|
 ----------------------------------------------------------------|

[F] [G]  
 
 ----------------------------------------------------------------|
 ----------------------------------------------------------------|
 10--10--10--10--10--10--10--10--14--14--14--14--14--14--14--14--|
 10--10--10--10--10--10--10--10--14--14--14--14--14--14--14--14--|
 8---8---8---8---8---8---8---8---12--12--12--12--12--12--12--12--|
 ----------------------------------------------------------------|

MAIN RIFF (play all four lines two times. there is a _tiny_ variation
on the second time in the first line, but I don't care) :
[A] [A]  
 
 -------------------------------------------------------------------|
 --------------------------------------------------------1----------|
 x---2-------2-------2-------2-------------0-----------------2------|
 x---2-------2-------2-------2---------2-------------2--------------|
 x---0-------0-------0-------0---3/3--------------------------------|
 -------------------------------------------------------------------|

[G] [G]  
 
 -------------------------------------------------------------------|
 --------------------------------------------------------1----------|
 ------------------------------------------0-----------------2------|
 x-------------------------------------2-------------2--------------|
 x---2-------2-------2-------2---3/3--------------------------------|
 x---3-------3-------3-------3--------------------------------------|

[C] [C]  
 
 -------------------------------------------------------------------|
 --------------------------------------------------------1----------|
 x-----------------------------------------0-----------------2------|
 x---4-------4-------4-------4---------2-------------2--------------|
 x---0-------0-------0-------0---3/3--------------------------------|
 -------------------------------------------------------------------|

[C] [C] [B]  
 
 ----------------------------------------------------------------|
 ----------------------------------------------------------------|
 x---5-------5---x---5-------5---x---5-------5---x---4-------4---|
 x---5-------5---x---5-------5---x---5-------5---x---4-------4---|
 x---3-------3---x---3-------3---x---3-------3---x---2-------2---|
 ----------------------------------------------------------------|

VERSE 1 PART 1:
[A] [A]  
 
 ----------------------------------------------------------------|
 ----------------------------------------------------------------|
 2---2-------2---2---2-------2---2---2-------2---2---2-------2---|
 2---2-------2---2---2-------2---2---2-------2---2---2-------2---|
 0---0-------0---0---0-------0---0---0-------0---0---0-------0---|
 ----------------------------------------------------------------|

[D] [D]  
 
 ----------------------------------------------------------------|
 ----------------------------------------------------------------|
 7---7-------7---7---7-------7---7---7-------7---7---7-------7---|
 7---7-------7---7---7-------7---7---7-------7---7---7-------7---|
 5---5-------5---5---5-------5---5---5-------5---5---5-------5---|
 ----------------------------------------------------------------|

[C] [E]  
 
 ----------------------------------------------------------------|
 ----------------------------------------------------------------|
 5---5-------5-------5-------5---9---9-------9-------9-------9---|
 5---5-------5-------5-------5---9---9-------9-------9-------9---|
 3---3-------3-------3-------3---7---7-------7-------7-------7---|
 ----------------------------------------------------------------|

[A] [C] [C] [B]  
 
 -------------------------------------------------------------------|
 -------------------------------------------------------------------|
 x---2-------2-------2-------2---------5---5-------------5-4--------|
 x---2-------2-------2-------2---------5---5---------x---5-4--------|
 x---0-------0-------0-------0---3/3-3---3---------3---3-2----------|
 -------------------------------------------------------------------|

VERSE 1 PART 2:
[A] [A]  
 
 ----------------------------------------------------------------|
 ----------------------------------------------------------------|
 x---x-x---2---------x---2---x-x-x---x-x---2---------x---2---x-x-|
 x---x-x---2---------x---2---x-x-x---x-x---2---------x---2---x-x-|
 0---0-0---0---------0---0---0-0-0---0-0---0---------0---0---0-0-|
 ----------------------------------------------------------------|

[D] [D]  
 
 ----------------------------------------------------------------|
 ----------------------------------------------------------------|
 x---x-x---7---------x---7---x-x-x---x-x---7---------x---7---x-x-|
 x---x-x---7---------x---7---x-x-x---x-x---7---------x---7---x-x-|
 5---5-5---5---------5---5---5-5-5---5-5---5---------5---5---5-5-|
 ----------------------------------------------------------------|

[C] [E]  
 
 ----------------------------------------------------------------|
 --------------------------------------------------------9-------|
 x---x---x---x---x---x---x---5---x---x---x---x---x---x-------x---|
 x---x---x---x---x---x---5---5---x---x---x---x---x---x-------x---|
 3---3---3---3---3---3---3---3---7---7---7---7---7---7-------7---|
 ----------------------------------------------------------------|

[A] [G] [D] [G]  
 
 ----------------------------------------------------------------|
 ----------------------------------------------------------------|
 x---2-------2-------------------x---7-------7-------------------|
 x---2-------2---x---5-------5---x---7-------7---x---5-------5---|
 x---0-------0---x---5-------5---x---5-------5---x---5-------5---|
 ----------------x---3-------3-------------------x---3-------3---|

INTRO PART 2.
MAIN RIFF but only one time.
VERSE 2 just like VERSE 1, both parts.
INTRO 1 play two times, but let notes play long,
and don't play the high flutetones.
INTRO PART 2 but play the first two lines three times,
then go on to the last two lines.
OUTRO 1 (both lines three times):
[F] [G] [C] [B]  
 
 -----------------------------------------------------------------|
 -----------------------------------------------------------------|
 10------10------10------14-12--12--12------12------12--17--16----|
 10------10------10------14-12--12--12------12------12--17--16----|
 8-------8-------8-------12-10--10--10------10------10--15--14----|
 -----------------------------------------------------------------|

[A] [E]  
 
 ----------------------------------------------------------------|
 ----------------------------------------------------------------|
 14--14------14--------------14--9---9-------x-----------9---9---|
 14--14------14--x---x---x---14--9---9-------9---x---x---9---9---|
 12--12------12--12--12--12--12--7---7-------7---7---7---7---7---|
 ----------------------------------------------------------------|

(then go on, both lines twice):
[F] [F]  
 
 ----------------------------------------------------------------|
 ----------------------------------------------------------------|
 ----1010------------1010------------1010------------1010----10--|
 x---1010----x---x---1010----x---x---1010----x---x---1010----10--|
 8---8-8-----8---8---8-8-----8---8---8-8-----8---8---8-8-----8---|
 ----------------------------------------------------------------|

[G] [G]  
 
 ----------------------------------------------------------------|
 ----------------------------------------------------------------|
 ----1212------------1212------------1212------------1212----12--|
 x---1212----x---x---1212----x---x---1212----x---x---1212----12--|
 10--1010----10--10--1010----10--10--1010----10--10--1010----10--|
 ----------------------------------------------------------------|

MAIN RIFF but last line twice.
ENDING CHORD:
[A]  
 
 ------------|
 ------------|
 2-----------|
 2-----------|
 0-----------|
 ------------|


Important: The song above is NOT stored on the Chordie server. The original song is hosted at www.guitaretab.com. Chordie works as a search engine and provides on-the-fly formatting. Chordie does not index songs against artists'/composers' will. To remove this song please click here.

Text color:
Chord color:
Chord grids: 
Font size:    
Page size: 

A B C D E F G
Rate #1 of 1 versions

Jango Player

Login - add to songbook

SHARE PAGE  




You need to log in to post comments