Guitar Tabs, Chords and Lyrics
Server problems seems to be fixed. Chordie has been experiencing problems with songs disappearing. These issues now seems to be fixed, but still verifying the fix. If you find anything strange, please email admin@chordie.com.


Waiting for You  Left Alone

Left Alone - Waiting For You
intro: D
[D]And she said, "Things are changing"
And I know times a' wasting
[G]As I'm sitting here waiting for [D]you
[D]My life's full of heartbreak and sorrow
And I don't care if I see tomorrow
[G]As I'm sitting here waiting for [D]you
[D]And tonight ended in a fight
But tomorrow it'll be alright
[G]As I'm sitting here waiting for [D]you
[C]And she said, I don't feel [G]right without y[D]ou
[C]And she said, I don't feel [G]right without y[D]ou
[D]Sitting all alone and I'm left to wonder
She dug my grave, wants me six feet under
[G]As I'm sitting here waiting for [D]you
[D]I've lost direction, she turned off the light
And now my days are as dark as night
[G]As I'm sitting here waiting for [D]you
[C]And she said, I don't feel [G]right without y[D]ou
[C]And she said, I don't feel [G]right without y[D]ou
 
 e|-0-0-0/2--3-3-3-3-2------|
 B|--------------------5-3--|
 G|-------------------------|
 D|-------------------------|x2
 A|-------------------------|
 E|-------------------------|
 e|-----------------------------------3-3-3-3-2--------|
 B|-3/5-3-0-------------------------3-----------5-3----|
 G|---------0-0-0-0-0-0-0-0-0-4-2-0--------------------|
 D|----------------------------------------------------|
 A|----------------------------------------------------|
 E|----------------------------------------------------|

[D]With an empty glass and an empty heart
With an empty stare she ripped me apart
[G]As I'm sitting here waiting for [D]you
[D]And I know things won't be the same
Nothing you will say won't change anything
[G]As I'm sitting here waiting for [D]you
[C]And she said, I don't feel [G]right without y[D]ou
[C]And she said, I don't feel [G]right without y[D]ou
 
 e|-0-0-0/2--3-3-3-3-2------|
 B|--------------------5-3--|
 G|-------------------------|
 D|-------------------------|x4
 A|-------------------------|
 E|-------------------------|

end on
e|-0-0-0/2-|
 
 B|---------|
 G|---------|
 D|---------|
 A|---------|
 E|---------|

listen to the song to get the rhythm right
another great piece by LEFT ALONE, enjoy

Important: The song above is NOT stored on the Chordie server. The original song is hosted at www.guitaretab.com. Chordie works as a search engine and provides on-the-fly formatting. Chordie does not index songs against artists'/composers' will. To remove this song please click here.

Text color:
Chord color:
Chord grids: 
Font size:    
Page size: 

C D G
Rate #1 of 2 versions

Login - add to songbook

SHARE PAGE  




You need to log in to post comments