Guitar Tabs, Chords and Lyrics
Major upgrade!! After one year development the new version of Chordie is now online! Please give feedback.


Calm Under the Waves  Maria Mena

First tab ever. Not perfect but still sounds pretty okay I guess
Chords used:
G - 320030
Cadd9 - 032030
Dsus4 - 000233
INTRO:
[G]  
 
 e|------------0-|
 B|----3-3----3--|
 G|----------0---| x 4
 D|--------------|
 A|--------------|
 E|----3-3-------|

VERSE:
I walk barefoot where the water drowns the sand
[G] [G]  
 
 e|------------0--------------------0---------------|
 B|-----3-3---3------------3-3----3-----------------|
 G|----------0------------------0-------------------|
 D|-------------------------------------------------|
 A|-------------------------------------------------|
 E|-----3-3----------------3-3----------------------|

With you no longer here to hold my hand, I let go...
[G] [G] [Cadd9] [Cadd9]  
 
 e|---------0----------------------------------0--------------------0-----------0--|
 B|--3-3---3--------------------------3-3----3--------------3-3----3------3-3--3---|
 G|-------0--------------------------------0--------------------0-----------0------|
 D|--------------------------------------------------------------------------------|
 A|---------------------------------------------------------3-3-----------3-3------|
 E|--3-3------------------------------3-3------------------------------------------|

I let go
[G] [G]  
 
 e|------------0--------------------0---------------|
 B|-----3-3---3------------3-3----3-----------------|
 G|----------0------------------0-------------------|
 D|-------------------------------------------------|
 A|-------------------------------------------------|
 E|-----3-3----------------3-3----------------------|

The rest of the verses are played in the same way.
CHORUS:
(Really not sure about the chords for this, but sounded alright to me)
There's a breeze in the air
[Dsus4] [Cadd9]  
 
 e|------3-3-------3----------------0---------------|
 B|--------------3------------3-3--3----------------|
 G|------------2------------------0-----------------|
 D|------0-0----------------------------------------|
 A|---------------------------3-3-------------------|
 E|-------------------------------------------------|

There's a boat anchored out here
[Dsus4] [Cadd9]  
 
 e|------3-3-------3----------------0---------------|
 B|--------------3------------3-3--3----------------|
 G|------------2------------------0-----------------|
 D|------0-0----------------------------------------|
 A|---------------------------3-3-------------------|
 E|-------------------------------------------------|

There's a calm under the waves
[Dsus4] [Cadd9]  
 
 e|------3-3-------3----------------0---------------|
 B|--------------3------------3-3--3----------------|
 G|------------2------------------0-----------------|
 D|------0-0----------------------------------------|
 A|---------------------------3-3-------------------|
 E|-------------------------------------------------|

So I choose to sink
[G] [G]  
 
 e|------------0--------------------0---------------|
 B|-----3-3---3------------3-3----3-----------------|
 G|----------0------------------0-------------------|
 D|-------------------------------------------------|
 A|-------------------------------------------------|
 E|-----3-3----------------3-3----------------------|

OUTRO:
I let go...
[Cadd9] [Cadd9]  
 
 e|--------------0-------------0------------|
 B|----3-3----3------3-3----3---------------|
 G|---------0-------------0-----------------|
 D|-----------------------------------------|
 A|----3-3-----------3-3--------------------|
 E|-----------------------------------------|

I let go.
[G] [G]  
 
 e|------------0---------------3----------------------|
 B|-----3-3---3--3-------------3----------------------|
 G|----------0-----0----------------------------------|
 D|---------------------------------------------------|
 A|----------------------------2----------------------|
 E|-----3-3--------------------3----------------------|


Important: The song above is NOT stored on the Chordie server. The original song is hosted at www.guitaretab.com. Chordie works as a search engine and provides on-the-fly formatting. Chordie does not index songs against artists'/composers' will. To remove this song please click here.

Text color:
Chord color:
Chord grids: 
Font size:    
Page size: 

Cadd9 Dsus4 G
Rate #3 of 4 versions

Login - add to songbook

SHARE PAGE  



You need to log in to post comments