Guitar Tabs, Chords and Lyrics
Server problems seems to be fixed. Chordie has been experiencing problems with songs disappearing. These issues now seems to be fixed, but still verifying the fix. If you find anything strange, please email admin@chordie.com.


I'm a Loser  Marianne Faithfull

 
 -----------------------------------------------------------------------------

I'M A LOSER - Marianne Faithfull
Lyrics by Lennon/McCartney
From MARIANNE FAITHFULL, 1965
 
 -----------------------------------------------------------------------------

Tabbed by: KM
It's my first chord/tab, so be nice to me if it isn't spot on! This cover of
the Beatles song is good if you have a soprano voice, it's just a bit higher
than the original.
Tuning: EADGBe
Chords:
D: [XX0232]
A: [X02220]
Cadd9: [X32030]
Em: [022000]
Bm: [X24432]
C: [X32010]
Intro:
 
 e|------10----------10----------10----------10-------------------|
 B|---7-------7---8-------8---7-------7---8-------8---7-----------|
 G|---------------------------------------------------------------|
 D|---------------------------------------------------------------|
 A|---------------------------------------------------------------|
 E|---------------------------------------------------------------|
 e|---10---------10----------10---------10------------------------|
 B|-------7---8-------8---7------7---8-------8---7----------------|
 G|---------------------------------------------------------------|
 D|---------------------------------------------------------------|
 A|---------------------------------------------------------------|
 E|---------------------------------------------------------------|

VERSE 1:
[D]Of all the [A]love I have [Cadd9]won or have [D]lost
[D]There is one [A]love I should [Cadd9]never have [D]crossed.
[D]He was a [A]boy in a [Cadd9]million, my [D]friend
[D]I should have [A]known he would [Cadd9]win in the [D]end.
CHORUS:
I'm a [Em]lose[A]r
And I [Em]lost someone who's [A]near to me.
I'm a [D]los[Bm]er
And I'm [Em]not what I [C]appear to [A]be.
VERSE 2:
[D]Although I [A]laugh and I [Cadd9]act like a [D]clown,
[D]Beneath this [A]mask I am [Cadd9]wearing a [D]frown.
[D]My tears are [A]falling like [Cadd9]rain from the [D]sky,
[D]Is it for [A]him or my[Cadd9]self that I [D]cry?
CHORUS:
I'm a [Em]lose[A]r
And I [Em]lost someone who's [A]near to me.
I'm a [D]los[Bm]er
And I'm [Em]not what I [C]appear to [A]be.
SOLO-y PART (Verse chords):
[D] [A] [Cadd9] [D]  
[D] [A] [Cadd9] [D]  
CHORUS:
I'm a [Em]lose[A]r
And I [Em]lost someone who's [A]near to me.
I'm a [D]los[Bm]er
And I'm [Em]not what I [C]appear to [A]be.
VERSE 3:
[D]What have I [A]done to de[Cadd9]serve such a [D]fate?
[D]I rea[A]lize I have [Cadd9]left it too [D]late
[D]And so it's [A]true pride comes [Cadd9]before a [D]fall,
[D]I'm telling [A]you so that [Cadd9]you won't lose [D]all.
CHORUS:
I'm a [Em]lose[A]r
And I [Em]lost someone who's [A]near to me.
I'm a [D]los[Bm]er
And I'm [Em]not what I [C]appear to [A]be.
I'm a [Em]lose[A]r
End on D

Important: The song above is NOT stored on the Chordie server. The original song is hosted at www.guitaretab.com. Chordie works as a search engine and provides on-the-fly formatting. Chordie does not index songs against artists'/composers' will. To remove this song please click here.

Text color:
Chord color:
Chord grids: 
Font size:    
Page size: 

A Bm C Cadd9 D Em
Rate #2 of 2 versions

Jango Player

Login - add to songbook

SHARE PAGE  




You need to log in to post comments