Guitar Tabs, Chords and Lyrics
Server problems seems to be fixed. Chordie has been experiencing problems with songs disappearing. These issues now seems to be fixed, but still verifying the fix. If you find anything strange, please email admin@chordie.com.


You're Beautiful  MercyMe

Intro
 
 ---------------------------------------------|
 ---------15----------13---------12--------13-|
 --11-12-------11-12------11-12------11-12----|
 ---------------------------------------------|
 ---------------------------------------------|
 ---------------------------------------------| Repeat with first verse

Verse I
The days will come when you don't have the strength
When all you hear is you're not worth anything
Wondering if you ever could be loved
And if they truly saw your heart they'd see too much
Chorus
You're [G]beautiful
You're [C]beautiful
em D C
You are made so much more than all of this
You're [G]beautiful
You're [C]beautiful
em D C
You are treasured, You are sacred, You are His
You're [G]beautiful
 
 ---------------------------------------------|
 ---------15----------13---------12--------13-|
 --11-12-------11-12------11-12------11-12----|
 ---------------------------------------------|
 ---------------------------------------------|
 ---------------------------------------------|

VerseII
Em C em
And praying that you have the heart to find
Cause you are [D]more than what is [C]hurting you tonight
G C em
For all the lies you've held inside so long
G em C
And they are nothing in the shadow of the cross
Chorus
Bridge
D em
Before you ever took a breath
[C]Long before the world [D]began
D em
Of all the wonders He possessed
[C]There was one more [D]precious
em C
Of all the earth and skys above
em C
You're the one He madly loves
D em
Enough to death
[G]You're beautiful
[C]You're beautiful
em D C
In His eyes
Chorus
em D C
You are treasured you are sacred you are his

Important: The song above is NOT stored on the Chordie server. The original song is hosted at www.guitaretab.com. Chordie works as a search engine and provides on-the-fly formatting. Chordie does not index songs against artists'/composers' will. To remove this song please click here.

Text color:
Chord color:
Chord grids: 
Font size:    
Page size: 

C D G
Rate #4 of 4 versions

Login - add to songbook

SHARE PAGE  




You need to log in to post comments