Guitar Tabs, Chords and Lyrics
Major upgrade!! After one year development the new version of Chordie is now online! Please give feedback.


Over and Over   Morcheeba

 
 |----------0---------------0---------------0---------------0------|
 |------1-----1---------1-----1---------1-----1---------1-----1----|
 |----2---------2-----2---------2-----2---------2-----2---------2--|
 |0h2-------------0h2-------------0h2-------------0h2--------------|
 |--------0---------------0---------------0---------------0--------|
 |-----------------------------------------------------------------|
 |----------0---------------0-------------0-------------0----------|
 |------1-----1---------1-----1---------0---0---------0---0-------0|
 |----2---------2-----0---------0-----0-------0-----0-------0----0-|
 |0h2-------------0h2-------------0h2-----------0h2-----------0h2--|
 |--------0---------------3----------------------------------------|
 |-----------------------------------------------------------------|
 |--0-------0-------0-------0---------------0--------------0-------|
 |----1-------1-------1-------1---------1-----1---------1----1-----|
 |------2-------0-------0-------0-----2---------2-----2--------2---|
 |3-------2-------0---------------0h2-------------0h2--------------|
 |------------------------3---------------0--------------0---------|
 |-----------------------------------------------------------------|
 |----------0-------0-------0-------0------------------------------|
 |------1-----1-------1-------1-------0----------------------------|
 |----0---------0-------0-------0-------0--------------------------|
 |0h2--------------------------------------------------------------|
 |--------3-------2-------0---------------------2------------------|
 |--------------------------------3-------0------------------------|


Important: The song above is NOT stored on the Chordie server. The original song is hosted at www.guitaretab.com. Chordie works as a search engine and provides on-the-fly formatting. Chordie does not index songs against artists'/composers' will. To remove this song please click here.

This song is displayed as text-only. Transposing and tuning is only available for chordpro-songs.
Rate #1 of 4 versions

Jango Player

Login - add to songbook

SHARE PAGE  




You need to log in to post comments