Guitar Tabs, Chords and Lyrics
Server problems seems to be fixed. Chordie has been experiencing problems with songs disappearing. These issues now seems to be fixed, but still verifying the fix. If you find anything strange, please email admin@chordie.com.


And I Walk With Them  My Dying Bride

================================================================================
M Y D Y I N G B R I D E
[-] 
A N D I W A L K W I T H T H E M
================================================================================
A LINE OF DEATHLESS KINGS
(c) Peaceville Records - 2006
http://www.mydyingbride.org/
Tune Down 1 & 1/2 Steps
[C#] [F#] [B] [E] [G#] [C#] 
Tempo = 126 BPM
Time Signature = 4/4
 
 -----------------------------

Transcribed by
PADDY MCMULLAN
stinkypoohpants@yahoo.co.uk
Version 1.0
5th November 2009
 
 -----------------------

Tablature Symbols Used:
p - Pull-Off
h - Hammer-On
P.M... - Palm Mute
\ - Slide Down to/Down From
/ - Slide Up To/Up From
( / ) - Legato Slide
( ) - Ghost Note/Tied Note/Implied Note
REST - Rest and sustain rest for duration of blank space
|_3_| - Triplet Notes
|__[1,2] - Alternative Endings
================================================================================
Section 1: Guitars 1 & 2 with Heavy Distortion (Play 5 times)
================================================================================
 
 ||--------------------------|----------------------------------|
 ||--------------------------|----------------------------------|
 ||--------------------------|----------------------------------|
 ||--------------------------|-------------------------(2 p 1)--|
 ||--------(0 h 2 h 3)--(0 h | 2 h 3)-(2 p 0)--(2 h 3)---------|
 ||--0-----------------------|----------------------------------|
 |--------------------------|--------------------------| |
 |--------------------------|--------------------------| |
 |--------------------------|--------------------------|*|
 |--2-----(0 h 2 h 3)--(2 p | 1)----------------4--5--|*|
 |--------------------------|------2----2--3--2--2--3--| |
 |--------------------------|--------------------2--3--| |

....
Guitar 2 joins in for the second repeat, at which point the first note of the
riff is replaced by the following chord:
 
 ||-------|
 ||-------|
 ||-------|
 ||-------|
 ||--2----|
 ||--0----|

================================================================================
Section 2: Guitars 2 & 3 (Play twice)
================================================================================
 
 ||-------------------|-------------------|----------------------|
 ||-------------------|-------------------|----------------------|
 ||-------------------|-------------------|----------------------|
 ||-------------------|-------------------|----------------------|
 ||--2----------------|--(2)--------------|--(2)----------10--9--|
 ||--0----------------|--(0)--------------|--(0)----------8---7--|
 |---------------------------|---------------------|-------------------|
 |---------------------------|---------------------|-------------------|
 |---------------------------|---------------------|-------------------|
 |---------------------------|---------------------|-------------------|
 |--(10\9) \ 5----5-- / 9----|--8\ --2------------|--(2)--------------|
 |--(8 \7) \ 3----3-- / 7----|--6\ --0------------|--(0)--------------|
 |----------------------|---------------------------|--------------------|
 |----------------------|---------------------------|--R- --------------|
 |----------------------|---------------------------|--E- --------------|
 |----------------------|---------------------------|--S- --------------|
 |--(2)----------10--9--|--(10\9) \ 5----5-- / 9----|--T- -2------------|
 |--(0)----------8---7--|--(8 \7) \ 3----3-- / 7----|-------0------------|
 |-------------------|----------------------|---------------------------| |
 |-------------------|----------------------|---------------------------| |
 |-------------------|----------------------|---------------------------|*|
 |-------------------|----------------------|---------------------------|*|
 |--(2)--------------|--(2)----------10--9--|--(10\9) \ 5----5-- / 9----| |
 |--(0)--------------|--(0)----------8---7--|--(8 \7) \ 3----3-- / 7----| |

After the first time, replace the 1st bar with the 5th
================================================================================
Section 3: Guitars 1 & 2 (Play 4 times)
================================================================================
* Let notes ring wherever possible *
 
 ||---------------------|---------------------|---------------------|
 ||---------------------|---------------------|---------------------|
 ||---------------------|---------------------|---------------------|
 ||-----------4---------|-----------4---------|-----------4---------|
 ||--2-------------2----|--2-------------2----|--2-------------2----|
 ||--0------------------|--2------------------|--3------------------|

|____________________[1,3]
 
 |----------------------| |
 |----------------------| |
 |----------------------|*|
 |------------4---------|*|
 |-------2---------2----| |
 |--3-------------------| |

|_____________________[2]
 
 |-----------------------|
 |-----------------------|
 |-----------------------|
 |-------4----(4 b5 r 4)-|
 |-----------------------|
 |--3--------------------|

4th repeat:
 
 ||--------------------|---------------------|-------------------|
 ||--------------------|---------------------|-------------------|
 ||--------------------|---------------------|-------------------|
 ||--4-----------------|--4-------------4----|--(4)--------------|
 ||--2------------2----|--2--------2----2----|--(2)--------------|
 ||--0------------0----|--2--------2----3----|--(3)--------------|

... ...
 
 |---------------------||
 |---------------------||
 |---------------------||
 |--(4)----------4--5--||
 |--(2)----------2--3--||
 |--(3)----------2--3--||

....
================================================================================
Guitars 1 & 2 repeat Section 1
================================================================================
================================================================================
Guitars 1 & 2 repeat Section 2
================================================================================
================================================================================
Section 4: Guitar 3 with Clean Tone (Play twice)
================================================================================
 
 ||---------------------|---------------------|---------------------|
 ||---------------------|---------------------|---------------------|
 ||---------------------|---------------------|---------------------|
 ||-----------2---------|-----------5---------|-----------2---------|
 ||--3-------------3----|--2-------------2----|--3-------------3----|
 ||---------------------|---------------------|---------------------|

|_____________________[1]
 
 |---------------------| |
 |---------------------| |
 |---------------------|*|
 |-----------2---------|*|
 |--2-------------2----| |
 |---------------------| |

|__________________[2]
 
 |-------------------||
 |-------------------||
 |-------------------||
 |-------------------||
 |--2----------------||
 |-------------------||

================================================================================
Section 5a: Lead Guitar 1 with Heavy Distortion (Repeats outlined below)
================================================================================
 
 -------

Part 1:
 
 -------
 ||-------------------|-------------------|-------------------|
 ||-------------------|-------------------|-------------------|
 ||-------------------|-------------------|-------------------|
 ||-------------------|-------------------|-------------------|
 ||--7----------------|--6----------------|--5----------------|
 ||-------------------|-------------------|-------------------|
 |-------------------| |
 |-------------------| |
 |-------------------|*|
 |-------------------|*| x 2
 |--(5)--------------| |
 |-------------------| |
 -------

Part 2:
 
 -------

|____________________
 
 ||---------------------|---------------------|-------------------|
 ||---------------------|---------------------|-------------------|
 ||---------------------|---------------------|-------------------|
 ||-----------9---------|-----------9---------|-------------------|
 ||--7-------------7----|--6-------------6----|--5----------------|
 ||---------------------|---------------------|-------------------|

|______________________[1]
 
 |----------------------| |
 |----------------------| |
 |----------------------|*|
 |----------------------|*| x 2
 |--(5)------------ \--| |
 |----------------------| |

|___________________________________________[2]
 
 |----------------------|---------------------||
 |----------------------|---------------------||
 |----------------------|---------------------||
 |----------------------|---------------------||
 |--5-------------- \--|---------------------||
 |----------------------|--3--------3--2------||
 -------

Part 3:
 
 -------
 ||--------------------|--------------------|-------------------|
 ||--------------------|--------------------|-------------------|
 ||--------------------|--------------------|-------------------|
 ||--------------------|--------------------|-------------------|
 ||--7------------7----|--6------------6----|--5----------------|
 ||--------------------|--------------------|-------------------|
 |------------------------|--------------------|--------------------|
 |------------------------|--------------------|--------------------|
 |------------------------|--------------------|--------------------|
 |------------------------|--------------------|--------------------|
 |--(5)----- / (10h12)----|--7------------7----|--6------------6----|
 |------------------------|--------------------|--------------------|
 |-------------------|-----------------------| |
 |-------------------|-----------------------| |
 |-------------------|-----------------------|*|
 |-------------------|-----------------------|*| x 2
 |--5----------------|--(5)----- / 9----9----| |
 |-------------------|-----------------------| |

================================================================================
Section 5b: Lead Guitar 2 with Heavy Distortion (Play once)
================================================================================
[1] [2] [3]  
 
 ||--------------------|-----------------------|---------------------|
 ||--------------------|-----------------------|---------------------|
 ||--------------------|-----------------------|---------------------|
 ||--9~~---------------|--10~~-----------9-- / | -14~~---------------|
 ||--------------------|-----------------------|---------------------|
 ||--------------------|-----------------------|---------------------|

[4] [5] [6]  
 
 |----------------------|---------------------|-------------------|
 |----------------------|---------------------|-------------------|
 |----------------------|---------------------|-------------------|
 |--(14)------------- / | -17~~---------------|--(17)-------------|
 |----------------------|---------------------|-------------------|
 |----------------------|---------------------|-------------------|

7 8 9
 
 |------------------------|---------------------------|---------------------|
 |------------------------|---------------------------|---------------------|
 |------------------------|---------------------------|---------------------|
 |--16~~----------(16 b 17 r16)---14~~---12~~--- \--|--9~~-----------9----|
 |------------------------|---------------------------|---------------------|
 |------------------------|---------------------------|---------------------|

10 11 12
 
 |-----------------------|---------------------|----------------------|
 |-----------------------|---------------------|----------------------|
 |-----------------------|---------------------|----------------------|
 |-(9/10)~~----------9 / | -14~~---------------|--(14)------------- / |
 |-----------------------|---------------------|----------------------|
 |-----------------------|---------------------|----------------------|

[13] [14]  
 
 |-------------------------|------------------------|
 |-------------------------|------------------------|
 |-------------------------|------------------------|
 |--17~~-----------17--19--|--16~~--------(16 b 17)-|
 |-------------------------|------------------------|
 |-------------------------|------------------------|

15 16// Repeat until fade \\
 
 |------------------------|--------------------------------||
 |------------------------|--------------------------------||
 |------------------------|--------------------------------||
 |--16~~--------(16 b 17)-|--16~~--(16b17)--16~~--(16b17)--||
 |------------------------|--------------------------------||
 |------------------------|--------------------------------||

================================================================================
Section 5c: Guitars 1 & 2 (Play 4 times)
================================================================================
The 1st bar is an overlap of the 16th bar of Section 5a; play this before
continuing with the rest of the riff
 
 ||---------------------||
 ||--R- -----------||
 ||--E- -----------||
 ||--S- -----------||
 ||--T- -----------||
 ||-----------3--2------||

This section consists of the first 4 bars of Section 3 repeated 4 times
================================================================================
Section 6: Guitars 1 & 2 (Play twice)
================================================================================
 
 ||--------------------|----------------------|-------------------------|
 ||--------------------|----------------------|-------------------------|
 ||--------------------|----------------------|-------------------------|
 ||--------------------|----------------------|-------------------------|
 ||--2------------5----|--4--------4----4--5--|--7 \ 5--5----5----4--5--|
 ||--0------------3----|--2--------2----2--3--|--5 \ 3--3----3----2--3--|

.... ....
 
 |----------------------| |
 |----------------------| |
 |----------------------|*|
 |----------------------|*|
 |--4--------5----4--5--| |
 |--2--------3----2--3--| |

....
================================================================================
Section 7a: Guitar 1 (Play twice)
================================================================================
 
 ||-----------------------|---------------------|---------------------|
 ||-----------------------|---------------------|---------------------|
 ||-----------------------|---------------------|---------------------|
 ||-----------------------|---------------------|---------------------|
 ||--2------ / -7~~-------|--7--------7~~-------|------------7--------|
 ||--0--------------------|--8------------------|--7~~----------------|
 |------------------------| |
 |------------------------| |
 |------------------------|*|
 |-----------10~~---9~~---|*|
 |--0---------------------| |
 |------------------------| |

================================================================================
Section 7b: Guitar 2 (Play twice)
================================================================================
 
 ||---------------------|----------------------|------------------------|
 ||---------------------|----------------------|------------------------|
 ||---------------------|----------------------|------------------------|
 ||-----------2---------|-----------2----------|------------------------|
 ||--2--------2----2----|--3--------3----2--3--|--2--3--2----2----0--2--|
 ||--0--------0----2----|--3--------3----2--3--|--2--3--2----2----0--2--|

... .... ....... ....
 
 |-------------------------| |
 |-------------------------| |
 |-------------------------|*|
 |-----------5~~---4~~- \--|*|
 |--0----------------------| |
 |--0----------------------| |

================================================================================
Section 8a: Guitar 1 plays Section 6 twice, replacing the first bar with
the following:
================================================================================
 
 ||-----------------------|
 ||-----------------------|
 ||-----------------------|
 ||--9--------9-- \-------|
 ||------------------5----|
 ||------------------3----|

================================================================================
Section 8b: Guitar 1 (twice)
================================================================================
 
 ||----------------------|----------------------|
 ||----------------------|----------------------|
 ||----------------------|----------------------|
 ||--2--------2 / 5----|--4--------4----4--5--|
 ||----------------------|----------------------|
 ||----------------------|----------------------|
 |----------------------------|------------------------| |
 |----------------------------|------------------------| |
 |----------------------------|------------------------|*|
 |--(7/9)--7----7----5----7p5\|--4------4--5----4--5 \ |*|
 |----------------------------|------------------------| |
 |----------------------------|------------------------| |

================================================================================
Section 9a: Guitar 1 (Play once)
================================================================================
 
 ||----------------------|---------------------|-----------------------|
 ||----------------------|---------------------|-----------------------|
 ||----------------------|---------------------|-----------------------|
 ||-------------9--------|---------------------|-----------------------|
 ||--2------- / 7--------|-----------7~~-------|--(9/10)------9--------|
 ||--0-------------------|--8------------------|-----------------------|
 |------------------------|---------------------|---------------------|
 |------------------------|---------------------|---------------------|
 |------------------------|---------------------|---------------------|
 |-----------10~~---9~~---|--9------------------|---------------------|
 |--7---------------------|-----------7~~-------|-----------7~~-------|
 |------------------------|---------------------|--8------------------|
 |--------------------------|-------------------------||
 |--------------------------|-------------------------||
 |--------------------------|-------------------------||
 |--------------------------|-------------------------||
 |--(9/10)----------12--10--|--12--------12----12\ --||
 |--------------------------|------------------12\ --||

================================================================================
Section 9b: Guitar 2 (Play twice)
================================================================================
 
 ||--------------------|--------------------|-----------------------|
 ||--------------------|--------------------|-----------------------|
 ||-----------4--------|-----------4--------|--(4/7)----------9--7--|
 ||--5-----------------|--4-----------------|-----------------------|
 ||--------------------|--------------------|-----------------------|
 ||--------------------|--------------------|-----------------------|
 |-----------------------| |
 |-----------------------| |
 |--9--------9~~----- \--|*|
 |-----------------------|*|
 |-----------------------| |
 |-----------------------| |

================================================================================
Section 10a: Guitar 1 plays the first 4 bars of Section 9a twice
================================================================================
================================================================================
Section 10b: Guitar 2 (Play twice)
================================================================================
 
 ||---------------------|----------------------|------------------------|
 ||---------------------|----------------------|------------------------|
 ||---------------------|----------------------|------------------------|
 ||-----------2---------|--5--------5----------|--------4----4----------|
 ||--2--------2----2----|--3--------3----2--3--|--2--3--2----2----0--2--|
 ||--0--------0----2----|--3--------3----2--3--|--2--3--2----2----0--2--|

... .... .... ....
 
 |-------------------------||
 |-------------------------||
 |-------------------------||
 |-----------5~~---4~~- \--||
 |--0----------------------||
 |--0----------------------||

================================================================================
Section 11a: Guitar 1 plays Section 6 four times
================================================================================
================================================================================
Section 11b: Guitar 2 (Play twice)
================================================================================
 
 ||----------------------|----------------------|
 ||----------------------|----------------------|
 ||----------------------|----------------------|
 ||--2--------2 / 5----|--4--------4----4--5--|
 ||----------------------|----------------------|
 ||----------------------|----------------------|
 |---------------------------|-----------------------------| |
 |---------------------------|-----------------------------| |
 |---------------------------|-----------------------------|*|
 |--(7/9)--7----7----(10\9)--|--(7/9)--7 \ (4/5)--4 \ 2--|*|
 |---------------------------|-----------------------------| |
 |---------------------------|-----------------------------| |

After this section Guitar 2 joins in with Guitar 1's part
================================================================================
Section 12: Guitars 1 & 2 (Play twice)
================================================================================
 
 ||--------------------|-----------------------|
 ||--------------------|-----------------------|
 ||--------------------|-----------------------|
 ||--------------------|-----------------------|
 ||--------------------|-----------------------|
 ||--0------------3----|--(2 b 3)---2----2--3--|
 |---------------------------|----------------------| |
 |---------------------------|----------------------| |
 |---------------------------|----------------------|*|
 |---------------------------|----------------------|*|
 |---------------------------|----------------------| |
 |--5--3--3----3----3--(5p3)-|--2--------3----2--3--| |

================================================================================
Guitar Solo For Section 12: Lead Guitar 1 (Play once)
================================================================================
 
 ||------------------------------|-------------------------------|
 ||----------------12------------|------13--13--12--12~~---------|
 ||-(14 p 12)--14----------------|---------------------------12--|
 ||--------------------14--------|-(14)--------------------------|
 ||------------------------------|-------------------------------|
 ||------------------------------|-------------------------------|
 |------------------------------------|--------------------------|
 |------------------------------------|--------------------------|
 |--(12 /16\ 14)~~--------12--(14p12)-|--11~~-------(12 \ 11)----|
 |------------------------------------|--------------------------|
 |------------------------------------|--------------------------|
 |------------------------------------|--------------------------|
 |-------------------------------|-------------------------------|
 |-----------------12------------|-------------------------------|
 |--(14 p 12)--14----------------|------12--12--11--11~~---------|
 |---------------------14--------|-(14)----------------------10--|
 |-------------------------------|-------------------------------|
 |-------------------------------|-------------------------------|
 |---------------------------|--------------------|----------------------||
 |---------------------------|--------------------|---------R- -||
 |---------9--------7--(9p7)-|--6~~---------------|--4-- \--E- -||
 |--10--9--------------------|--------------------|---------S- -||
 |---------------------------|--------------------|---------T- -||
 |---------------------------|--------------------|----------------------||

================================================================================
Outro: Guitars 1 & 2 (Play twice)
================================================================================
 
 ||--------------------|----------------------|------------------------|
 ||--------------------|----------------------|------------------------|
 ||--------------------|----------------------|------------------------|
 ||--------------------|----------------------|------------------------|
 ||--2------------5----|--4--------4----4--5--|--7 \ 5--5--------4--5--|
 ||--0------------3----|--2--------2----2--3--|--5 \ 3--3--------2--3--|

.... ....
 
 |----------------------| |
 |----------------------| |
 |----------------------|*|
 |----------------------|*|
 |--4--------5----4--5--| |
 |--2--------3----2--3--| |

....
End on the following chord, and hold it until the song fades out:
 
 ||-------||
 ||-------||
 ||-------||
 ||-------||
 ||--2----||
 ||--0----||

================================================================================
[End]================================================================================
Tab summary: Section 1 x 5
Section 2 x 2
Section 3 x 4
Section 1 x 4
Section 2 x 2
Section 4 x 2
Section 5 x 1 + Section 4 x 4
Section 6 x 2
Section 7 x 2
Section 8 x 2
Section 9a x 1 + Section 9b x 2
Section 10 x 2
Section 11 x 2
Section 12 x 2
Outro x 2
END

Important: The song above is NOT stored on the Chordie server. The original song is hosted at www.guitaretab.com. Chordie works as a search engine and provides on-the-fly formatting. Chordie does not index songs against artists'/composers' will. To remove this song please click here.

Text color:
Chord color:
Chord grids: 
Font size:    
Page size: 

B C# E F# G#
Rate #1 of 3 versions

Login - add to songbook

SHARE PAGE  




You need to log in to post comments