Guitar Tabs, Chords and Lyrics
Server problems seems to be fixed. Chordie has been experiencing problems with songs disappearing. These issues now seems to be fixed, but still verifying the fix. If you find anything strange, please email admin@chordie.com.


The Lies I Sire  My Dying Bride

================================================================================
M Y D Y I N G B R I D E
[-] 
T H E L I E S I S I R E
================================================================================
FOR LIES I SIRE
(c) Peaceville Records - 2009
http://www.mydyingbride.org/
Tune Down 1 & 1/2 Steps
[C#] [F#] [B] [E] [G#] [C#] 
Tempo = 78 BPM
Time Signature = 4/4
 
 -----------------------------

Transcribed by
PADDY MCMULLAN
stinkypoohpants@yahoo.co.uk
Version 1.0
4th November 2009
 
 -----------------------

Tablature Symbols Used:
p - Pull-Off
h - Hammer-On
P.M... - Palm Mute
\ - Slide Down to/Down From
/ - Slide Up To/Up From
( / ) - Legato Slide
( ) - Ghost Note/Tied Note/Implied Note
- Artificial/Pinch Harmonics
|_3_| - Triplet Notes
|__[1,2] - Alternative Endings
================================================================================
Section 1a: Guitar 1 with Clean Tone (Play Twice)
================================================================================
 
 ||-------------------------|--------------------|
 ||-------------------------|--------------------|
 ||-------------------------|--------------------|
 ||-------5--2--(4/5)--5----|--(5)---------------|
 ||-------------------------|--------------------|
 ||--0----------------------|--(0)----------3----|
 |-------------------------|--------------------|---------------------------|
 |-------------------------|--------------------|---------------------------|
 |-------------------------|--------------------|---------------------------|
 |-------5--2--(4/5)--0----|--(0)---------------|-------5--2--(4/5)--(5/7)--|
 |-------------------------|--------------------|---------------------------|
 |--0----------------------|--(0)----------3----|--0------------------------|

|____________________[1]
 
 |-----------------------|-------------------------|--------------------| |
 |-----------------------|-------------------------|--------------------| |
 |-----------------------|-------------------------|--------------------|*|
 |-(7)-----5----- \ 4----|-------5--2--(4/5)--0----|--(0)---------------|*|
 |-----------------------|-------------------------|--------------------| |
 |-(0)-------------------|--0----------------------|--(0)----------3----| |

|___________________[2]
 
 |--------------------||
 |--------------------||
 |--------------------||
 |--(0)---------------||
 |--------------------||
 |--(0)---------------||

================================================================================
Section 1b: Guitar 2 with Clean Tone (Play once)
================================================================================
Rest for 8 bars before joining in
* Let notes ring where possible *
 
 ||-------0----0----0------0----|--(0)--------------|
 ||-------12 \ 10 \ 7 / 8-------|--(8)--------------|
 ||-----------------------------|-------------------|
 ||-----------------------------|-------------------|
 ||-----------------------------|-------------------|
 ||-----------------------------|-------------------|
 |-------0----0----0------0----|--(0)--------------|
 |-------12 \ 10 \ 7 / 8--5----|--(5)--------------|
 |-----------------------------|-------------------|
 |-----------------------------|-------------------|
 |-----------------------------|-------------------|
 |-----------------------------|-------------------|
 |-------0----0----0-----0-----|--(0)--------------|
 |-------12 \ 10 \ 7 / 8-8/10--|--(10)-------------|
 |-----------------------------|-------------------|
 |-----------------------------|-------------------|
 |-----------------------------|-------------------|
 |-----------------------------|-------------------|
 |-------0----0----0------0----|--(0)--------------||
 |-------12 \ 10 \ 7 / 8--5----|--(5)--------------||
 |-----------------------------|-------------------||
 |-----------------------------|-------------------||
 |-----------------------------|-------------------||
 |-----------------------------|-------------------||

================================================================================
Section 2a: Guitar 3 with Heavy Distortion (Play once) [ Tempo = 82 BPM ]
================================================================================
Bar 1 is an overlap of the end of Section 1
 
 ||-----------------------||----------------------------|
 ||-----------------------||----------------------------|
 ||-----------------------||----------------------------|
 ||-----------4-----5-----||--2-------------------------|
 ||-----------2--5--3--3--||--2--------(2)/8--11-10-- \-|
 ||--------------3-----1--||--0-------------------------|
 |------------------------|--------------------------------|
 |------------------------|--------------------------------|
 |------------------------|--------------------------------|
 |------------------------|--------------------------------|
 |--2-----------2--(7/8)--|--7~~-- \-2----(2)/8--11-10-- \-|
 |--0---------------------|--------------------------------|
 |-----------------------|----------------------------|
 |-----------------------|----------------------------|
 |-----------------------|----------------------------|
 |--2--------4-----5-----|----------------------------|
 |--2--------2--5--3--3--|--2--------(2)/8--11-10-- \-|
 |--0-----------3-----1--|--0-------------------------|
 |------------------------|---------------------------------|
 |------------------------|---------------------------------|
 |------------------------|---------------------------------|
 |------------------------|---------------------------------|
 |--2-----------2--(7/8)--|--7~~--(7/10)---- \ 8--11-10-- \-|
 |--0---------------------|---------------------------------|
 |-----------------------||
 |-----------------------||
 |-----------------------||
 |--2--------4-----5-----||
 |--2--------2--5--3--3--||
 |--0-----------3-----1--||

================================================================================
Section 2b: Guitar 4 with Heavy Distortion (Play once)
================================================================================
Bar 1 is an overlap of the end of Section 1
 
 ||-----------------------||------------------------------|
 ||-----------------------||------------------------------|
 ||-----------------------||------------------------------|
 ||-----------4-----5-----||--2----------(5/7)--10p9~~- \-|
 ||-----------2--5--3--3--||--2---------------------------|
 ||--------------3-----1--||--0---------------------------|
 |-----------------------|------------------------------|
 |-----------------------|------------------------------|
 |-----------------------|------------------------------|
 |--2--------------------|--2----------(5/7)--10p9~~- \-|
 |--2-----------2--3--3--|--2---------------------------|
 |--0-----------0--1--1--|--0---------------------------|

P.M....
 
 -----------------------|------------------------------|
 -----------------------|------------------------------|
 -----------------------|------------------------------|
 --2--------4-----5-----|--2----------(5/7)--10p9~~- \-|
 --2--------2--5--3--3--|--2---------------------------|
 --0-----------3-----1--|--0---------------------------|
 |-----------------------|------------------------------|
 |-----------------------|------------------------------|
 |-----------------------|------------------------------|
 |--2--------------------|--2----------(5/7)--10p9~~- \-|
 |--2-----------2--3--3--|--2---------------------------|
 |--0-----------0--1--1--|--0---------------------------|

.......
 
 |-----------------------||
 |-----------------------||
 |-----------------------||
 |--2--------4-----5-----||
 |--2--------2--5--3--3--||
 |--0-----------3-----1--||

================================================================================
Section 3a: Guitar 3 (Play twice)
================================================================================
 
 ||---------------------|-----------------------|
 ||---------------------|-----------------------|
 ||---------------------|-----------------------|
 ||-(7/9)---------------|--9-7---------------4--|
 ||---------------------|-----------------------|
 ||---------------------|-----------------------|

|_3_|
 
 |--------------------------|-----------------------| |
 |--------------------------|-----------------------| |
 |--------------------------|-----------------------|*|
 |-(4/5)--------------5h7p5-|-----------4-----5-----|*|
 |--------------------------|--7--------2--5--3--3--| |
 |--------------------------|--------------3-----1--| |

At the end of this section strike and hold the following chord for 15 bars and
then play the second bar before progressing to the next section:
 
 ||-------|
 ||-------|
 ||-------|
 ||--2----| x 15
 ||--2----|
 ||--0----|
 |-----------------------||
 |-----------------------||
 |-----------------------||
 |-(2)-------4-----5-----||
 |-(2)-------2--5--3--3--||
 |-(0)----------3-----1--||

The tempo during the E chord decreases to 76 BPM
================================================================================
Section 3b: Guitar 4 (Play once)
================================================================================
 
 ||--------------------|------------------------|-------------------|
 ||--------------------|------------------------|-------------------|
 ||--------------------|------------------------|-------------------|
 ||--------------------|------------------------|-------------------|
 ||--10----------------|--10-9---------------5--|--7----------------|
 ||--------------------|------------------------|-------------------|
 |--------------------------|--------------------|-------------------------|
 |--------------------------|--------------------|-------------------------|
 |--------------------------|--------------------|-------------------------|
 |--------------4-----5-----|--------------------|-------------------------|
 |--~~-------2--5--3--3--|--10----------------|--10-9---------------12--|
 |-----------------3-----1--|--------------------|-------------------------|
 |------------------------|-----------------------------||
 |------------------------|-----------------------------||
 |------------------------|-----------------------------||
 |------------------------|-----------------4-----5-----||
 |--(12/14 b15r14)--------|--~~----- \--2--5--3--3--||
 |------------------------|--------------------3-----1--||

At the end of this section strike and hold the following chord for 15 bars and
then play the second bar before progressing to the next section:
 
 ||-------|
 ||-------|
 ||-------|
 ||--2----| x 15
 ||--2----|
 ||--0----|
 |-----------------------||
 |-----------------------||
 |-----------------------||
 |-(2)-------4-----5-----||
 |-(2)-------2--5--3--3--||
 |-(0)----------3-----1--||

================================================================================
Guitars 1 & 2 repeat Section 1 during the extended E chord
================================================================================
================================================================================
Guitars 3 and 4 repeat Section 2 [ Tempo = 82 BPM ]
================================================================================
================================================================================
Guitars 3 and 4 repeat Section 3
================================================================================
================================================================================
Section 4a: Guitar 3 (Play once)
================================================================================
 
 ||-----------------------|---------------------|-----------------------|
 ||-----------------------|---------------------|-----------------------|
 ||-----------------------|---------------------|-----------------------|
 ||--6--------6---- \2----|--(2/5)--------------|--6--------6---- \2----|
 ||--4--------------------|---------------------|--4--------------------|
 ||--4--------------------|---------------------|--4--------------------|
 |---------------------------|-----------------------|---------------------|
 |---------------------------|-----------------------|---------------------|
 |---------------------------|-----------------------|---------------------|
 |-(2/5)---------------------|--6--------6---- \2----|--(2/5)--------------|
 |----3----4--3--4--3--------|--4--------------------|---------------------|
 |----3----4--3--4--3--1~~---|--4--------------------|---------------------|

..........
 
 |-----------------------|-----------------------------||
 |-----------------------|-----------------------------||
 |-----------------------|-----------------------------||
 |--6--------6---- \2----|-(2/5)-----------------------||
 |--4--------------------|----3----4--3--4--3--1~~-1~~-||
 |--4--------------------|----3----4--3--4--3--1~~-1~~-||

..........
================================================================================
Section 4b: Guitar 4 (Play once)
================================================================================
 
 ||-----------------------|-------------------|-----------------------|
 ||-----------------------|-------------------|-----------------------|
 ||-----------------------|-------------------|-----------------------|
 ||--6--------6-----------|-------------------|--6--------6-----------|
 ||--4-------------7--- \ | -3----------------|--4-------------7--- \ |
 ||--4--------------------|-------------------|--4--------------------|
 |-------------------------|-----------------------|-------------------|
 |-------------------------|-----------------------|-------------------|
 |-------------------------|-----------------------|-------------------|
 |-------------------3--3--|--6--------6-----------|-------------------|
 | -3----4--3--4--3--1--1--|--4-------------7--- \ | -3----------------|
 |-------4--3--4--3--1--1--|--4--------------------|-------------------|

..........
 
 |-----------------------|-------------------------||
 |-----------------------|-------------------------||
 |-----------------------|-------------------------||
 |--6--------6-----------|-------------------3--3--||
 |--4-------------7--- \ | -3----4--3--4--3--1--1--||
 |--4--------------------|-------4--3--4--3--1--1--||

..........
================================================================================
Section 5a: Guitar 3 (Play 4 times)
================================================================================
 
 ||-------------------|-------------------|-------------------|
 ||-------------------|-------------------|-------------------|
 ||-------------------|-------------------|-------------------|
 ||--6----------------|--5----------------|--6----------------|
 ||--4----------------|--3----------------|--4----------------|
 ||--4----------------|--3----------------|--4----------------|

|_____________________[1,2,3]
 
 |-------------------------| |
 |-------------------------| |
 |-------------------------|*|
 |-------6--5--------------|*|
 |-------------7--6--8~~---| |
 |--5----------------------| |

|_____________________[4]
 
 |-----------------------|
 |-----------------------|
 |-----------------------|
 |--2--------4-----5-----|
 |--0--------2--5--3--3--|
 |--------------3-----1--|

================================================================================
Section 5b: Guitar 4 (Play 4 times)
================================================================================
 
 ||-------------------|-------------------|-------------------|
 ||-------------------|-------------------|-------------------|
 ||-------------------|-------------------|-------------------|
 ||--6----------------|--5----------------|--6----------------|
 ||--4----------------|--3----------------|--4----------------|
 ||--4----------------|--3----------------|--4----------------|

|______________________[1,2,3]
 
 |--------------------------| |
 |--------------------------| |
 |--------------------------|*|
 |--2-----------------------|*|
 |--0----4 p 3--4--3--------| |
 |--------------------6~~---| |

|_____________________[4]
 
 |-----------------------|
 |-----------------------|
 |-----------------------|
 |--2--------4-----5-----|
 |--0--------2--5--3--3--|
 |--------------3-----1--|

================================================================================
Guitars 3 and 4 play Section 2
================================================================================
================================================================================
Guitars 3 and 4 play Section 3
================================================================================
================================================================================
[End]================================================================================
Tab summary: Section 1 x 2
Section 2 x 1
Section 3 x 2
Section 1 x 2
Section 2 x 1
Section 3 x 2
Section 4 x 1
Section 5 x 4
Section 2 x 1
Section 3 x 2
END

Important: The song above is NOT stored on the Chordie server. The original song is hosted at www.guitaretab.com. Chordie works as a search engine and provides on-the-fly formatting. Chordie does not index songs against artists'/composers' will. To remove this song please click here.

Text color:
Chord color:
Chord grids: 
Font size:    
Page size: 

B C# E F# G#
Rate #1 of 2 versions

Login - add to songbook

SHARE PAGE  




You need to log in to post comments