Guitar Tabs, Chords and Lyrics
Server problems seems to be fixed. Chordie has been experiencing problems with songs disappearing. These issues now seems to be fixed, but still verifying the fix. If you find anything strange, please email admin@chordie.com.


The Cry of Mankind  My Dying Bride

================================================================================
M Y D Y I N G B R I D E
[-] 
T H E C R Y O F M A N K I N D
================================================================================
THE ANGEL AND THE DARK RIVER
(c) Peaceville Records (1995)
http://www.mydyingbride.org/
Tune Down 1 & 1/2 Steps
[C#] [F#] [B] [E] [G#] [C#] 
Tempo = 52 BPM
Time Signature = 4/4
 
 -----------------------------

Transcribed by
PADDY MCMULLAN
pmtabs (@t) gmail [dot] com
Version 1.0
1st November 2010
 
 -----------------------

Tablature Symbols Used:
p - Pull-Off
h - Hammer-On
P.M... - Palm Mute
\ - Slide Down to/Down From
/ - Slide Up To/Up From
( / ) - Legato Slide
( ) - Ghost Note/Tied Note/Implied Note
REST - Rest and sustain rest for duration of blank space
|_3_| - Triplet Notes
|__[1,2] - Alternative Endings
T - Left-hand Tapping
================================================================================
Intro: Guitar 3 with Heavy Distortion and Delay
================================================================================
|____3____| |____3____| |____3____| |____3____|
 
 ||------------------------------------------------------| |
 ||--T-------------------------T-------------------------| |
 ||-(16 p 9 h 12)-T-----------(16 p 9 h 12)-T------------|*|
 ||--------------(16 p 9 h 12)-------------(16 p 9 h 12)-|*|
 ||------------------------------------------------------| |
 ||------------------------------------------------------| |

This passage is played repeatedly throughout the song.
================================================================================
Section 1: Guitars 1 & 2 with Heavy Distortion and Mild Delay (Play once)
================================================================================
 
 ||-------------------|-------------------|-------------------|
 ||-------------------|-------------------|-------------------|
 ||-------------------|-------------------|-------------------|
 ||-------------------|-------------------|-------------------|
 ||--2----------------|--(2)--------------|--(2)--------------|
 ||--0----------------|--(0)--------------|--(0)--------------|
 |-------------------|-------------------|-------------------|
 |-------------------|-------------------|-------------------|
 |-------------------|-------------------|-------------------|
 |-------------------|-------------------|-------------------|
 |--(2)--------------|--(2)--------------|--(2)--------------|
 |--(0)--------------|--(0)--------------|--(0)--------------|
 |---------------------|-------------------|-------------------|
 |-----R-- --|-- --|-------------------|
 |-----E-- --|-- --|-------------------|
 |-----S-- --|-- --|-------------------|
 |--2--T-- --|-- --|--2----------------|
 |--0------------------|-------------------|--0----------------|
 |-----------------|-----------------|-----------------|-----------------|
 |-----------------|-----------------|-----------------|-----------------|
 |-----------------|-----------------|-----------------|-----------------|
 |-----------------|-----------------|-----------------|-----------------|
 |--(2)------------|--(2)------------|--(2)------------|--(2)------------|
 |--(0)------------|--(0)------------|--(0)------------|--(0)------------|
 |-------------------|-------------------|-------------------||
 |-------------------|-------------------|--R-- --||
 |-------------------|-------------------|--E-- --||
 |-------------------|-------------------|--S-- --||
 |--(2)--------------|--(2)--------------|--T-- --||
 |--(0)--------------|--(0)--------------|-------------------||

================================================================================
Section 2: Guitars 1 & 2 (Play twice)
================================================================================
|__3_| |__3_|
 
 ||-------------------------|--------------------|-------------------------|
 ||-------------------------|--------------------|-------------------------|
 ||-------------------------|--------------------|-------------------------|
 ||-------------------------|--------------------|-------------------------|
 ||--2------------(2 /7)--|--3--------2--------|--2------------(2 /7)--|
 ||--0----------------------|--------------------|--0----------------------|
 |--------------------| |
 |--------------------| |
 |--------------------|*|
 |--------------------|*|
 |--3--------2--------| |
 |--------------------| |

================================================================================
Section 3: Guitars 1 & 2 (Play twice)
================================================================================
|__3__| |__3__|
|__3__| |__3___| |_________________________________[1]
 
 ||---------------------------------------|---------------------------------| |
 ||---------------------------------------|---------------------------------| |
 ||---------------------------------------|---------------------------------|*|
 ||-----9--5-- /10----(10h12p10)-9--------|-----9--5-- /10----9-------------|*|
 ||--7------------------------------------|--7-------------------9----10----| |
 ||---------------------------------------|---------------------------------| |

|__3__| |__3__|
|_____________________________________[2]
 
 |--------------------------------------||
 |--------------------------------------||
 |--------------------------------------||
 |-----9--5-- /10----9------------------||
 |--7-------------------9----10-- \--2--||
 |-----------------------------------0--||

P.M.
================================================================================
Section 4: Guitars 1 & 2 (Play twice)
================================================================================
 
 ||--------------------------------|--------------------------------|
 ||--------------------------------|--------------------------------|
 ||--------------------------------|--------------------------------|
 ||-----------9--------5-----------|-----------9---------12---------|
 ||--2---- /7--------3-------------|--2---- /7--------10---------2--|
 ||--0-----------------------------|--0--------------------------0--|

...
|_________________________[1]
 
 |-----------------------------------|-------------------------| |
 |-----------------------------------|-------------------------| |
 |-----------------------------------|-------------------------|*|
 |-----------9--------5--------------|-------4----2------------|*|
 |--2---- /7--------3-------------3--|--2-------------------2--| |
 |--0--------------------------------|----------------------0--| |

...
|____________________[2]
 
 |---------------------||
 |---------------------||
 |---------------------||
 |-------4----2--------||
 |--2------------------||
 |---------------------||

================================================================================
Section 5: Guitars 1 & 2 (Play once) [ Variation of Section 2 ]
================================================================================
|_3__|
 
 ||-------------------------|-------------------------|
 ||-------------------------|-------------------------|
 ||-------------------------|-------------------------|
 ||-------------------------|-------5----4---------2--|
 ||--2------------(2 /7)--|--3----------------------|
 ||--0----------------------|-------------------------|

|_3__| |_3__|
 
 |-------------------------|--------------------------|------------------------|
 |-------------------------|--------------------------|------------------------|
 |-------------------------|--------------------------|------------------------|
 |--2----------------------|-------5---- /7--------9--|--9---------------------|
 |---------------(2 /7)--|--3-----------------------|--------------(2 /7)--|
 |-------------------------|--------------------------|------------------------|

|_3__|
 
 |-------------------------|-------------------------|-----------------------||
 |-------------------------|-------------------------|-----------------------||
 |-------------------------|-------------------------|-----------------------||
 |-------5----4---------2--|--2----------------------|-------5---- /7--------||
 |--3----------------------|---------------(2 /7)--|--3--------------------||
 |-------------------------|-------------------------|-----------------------||

================================================================================
Section 6: Guitars 1 & 2 (Play once)
================================================================================
|__3_| |___3______|
 
 ||--------------------------|----------------------------------|
 ||--------------------------|----------------------------------|
 ||--------------------------|----------------------------------|
 ||-------9------------------|-------10-------------------------|
 ||--7---------10----9----7--|--7----------10---- /12--10--9h10-|
 ||--------------------------|----------------------------------|

|__3_|
 
 |--------------------------|----------------------------|
 |--------------------------|----------------------------|
 |--------------------------|----------------------------|
 |-------9------------------|-------10---- /12-----------|
 |--7---------10----9----7--|--7----------------------7--|
 |--------------------------|----------------------------|

|__3__| |___3___| |___3___| |__3____| |___3___|
 
 |--------------------------------|-----------------------------------------|
 |--------------------------------|-----------------------------------------|
 |--------------------------------|-----------------------------------------|
 |--------------------------------|-----------------------------------------|
 |--7----------(7 /9)--10--9--10--|--10----- /12--10--9--10--12--10--9--10--|
 |--------------------------------|-----------------------------------------|

|__3__| |___3___| |__3__| |___3___| |___3__|
 
 |-------------------------------|------------------------------------||
 |-------------------------------|------------------------------------||
 |-------------------------------|------------------------------------||
 |-------------------------------|------------------------------------||
 |--7----------(7 /9)--10--9--7--|--7-----9--7--(5 /7)--9--7--(5 /7)--||
 |-------------------------------|------------------------------------||

================================================================================
Repeat Section 3
================================================================================
================================================================================
Repeat Section 4
================================================================================
================================================================================
Repeat Section 2
================================================================================
================================================================================
Repeat Section 5
================================================================================
================================================================================
Repeat Section 4, allowing the final note to ring out
================================================================================
================================================================================
Continue playing the intro until fade
================================================================================
================================================================================
[End]================================================================================
Tab summary: Intro x 2 (Repeat indefinitely)
Section 1 x 1
Section 2 x 2
Section 3 x 2
Section 4 x 2
Section 5 x 1
Section 6 x 1
Section 3 x 2
Section 4 x 2
Section 2 x 2
Section 5 x 1
Section 4 x 2
END

Important: The song above is NOT stored on the Chordie server. The original song is hosted at www.guitaretab.com. Chordie works as a search engine and provides on-the-fly formatting. Chordie does not index songs against artists'/composers' will. To remove this song please click here.

Text color:
Chord color:
Chord grids: 
Font size:    
Page size: 

B C# E F# G#
Rate #2 of 3 versions

Login - add to songbook

SHARE PAGE  




You need to log in to post comments