Guitar Tabs, Chords and Lyrics
Server problems seems to be fixed. Chordie has been experiencing problems with songs disappearing. These issues now seems to be fixed, but still verifying the fix. If you find anything strange, please email admin@chordie.com.


The Poorest Waltz  My Dying Bride

[C#-F#-B-E-G#-C#]  
TABBED BY-andherembrace
R
 
 -------------------------------------------------------|
 ------------------------------------------___----------|
 -----------------------------------------/ \---^-----|
 --------------------5---------5/7-5-4/5-4-5-4\2-2-4----|
 -2------4----5--4-5-3----------------------------------|
 -0------2----3--2-3-3----------------------------------|

* *
L
 
 -------------------------------------------------------|
 -------------------------------------------------------|
 -------------------------------------------------------|
 --------------------5----------------------------------|
 -2------4----5--4-5-3----------------------------------|
 -0------2----3--2-3-3----------------------------------|

* *
[B]  
 
 --------------------------------------------|
 --------------------------------------------|
 ------------------------------PH------PH----|
 ------------7----5--------4-4-4~~-4-4-4~~---|
 -2-----4----5----3--------2-2-----2-2-------|
 -0-----2----5--3-3--------------------------|

* * * * *
0:19
L
 
 -------------------------------------------------------|
 ------------------------------------------___----------|
 -----------------------------------------/ \---^-----|
 --------------------5---------5/7-5-4/5-4-5-4\2-2-4----|
 -2------4----5--4-5-3----------------------------------|
 -0------2----3--2-3-3----------------------------------|

* *
R
 
 -------------------------------------------------------|
 -------------------------------------------------------|
 ------------------------------------------___----------|
 -----------------------------------------/ \---^-----|
 -2-----0----2---0-2-3---------3/5-3-2/3-2-3-2-0-0-2----|
 -0-----------------------------------------------------|

[B]  
 
 --------------------------------------------|
 --------------------------------------------|
 ------------------------------PH------PH----|
 ------------7----5--------4-4-4~~-4-4-4~~---|
 -2-----4----5----3--------2-2-----2-2-------|
 -0-----2----5--3-3--------------------------|

* * * * *
0:37
L
 
 -------------------------------------------------|
 -------------------------------------------------|
 ---------------12-11-12-14---------------12-14---|
 ------------9---X--X--X--X----------------X--X---|
 -2-----/7-----/10--9/10-12---------------10/12---|
 -0-----------------------------------------------|

R
 
 -------------------------------------------------|
 -------------------------------------------------|
 ---------------12--11---7-----------------5-7----|
 ----------------X---X---X-----------------X-X----|
 -2-------------10---9---5-----------------3/5----|
 -0-----------------------------------------------|

L
 
 -------------------------------------------------|
 -------------------------------------------------|
 ---------------12-11-12-11-----------------------|
 ------------9---X--X--X--X-----------------------|
 -2-----/7-----/10--9/10--9-----------------------|
 -0-----------------------------------------------|

R
 
 -------------------------------------------------|
 -------------------------------------------^-----|
 ---------------12--11---7---------------/11-12~~-|
 ----------------X---X---X------------------------|
 -2-------------10---9---5------------------------|
 -0-----------------------------------------------|

L
 
 -------------------------------------------------|
 -------------------------------------------------|
 ---------------12-11-12-14---------------12-14---|
 ------------9---X--X--X--X----------------X--X---|
 -2-----/7-----/10--9/10-12---------------10/12---|
 -0-----------------------------------------------|

R
 
 -------------------------------------------------|
 -------------------------------------------------|
 ---------------16--11---7-----------------5-7----|
 ----------------X---X---X-----------------X-X----|
 -2-------------14---9---5-----------------3/5----|
 -0-----------------------------------------------|

L
 
 -------------------------------------------------|
 -------------------------------------------------|
 ---------------12-11-12-11-----------------------|
 ------------9---X--X--X--X-----------------------|
 -2-----/7-----/10--9/10--9-----------------------|
 -0-----------------------------------------------|

R
 
 -------------------------------------------------|
 -------------------------------------------^-----|
 ---------------12--11---7---------------/11-12~~-|
 ----------------X---X---X------------------------|
 -2-------------10---9---5------------------------|
 -0-----------------------------------------------|

1:15
R
 
 -------------------------------------------------------|
 ------------------------------------------___----------|
 -----------------------------------------/ \---^-----|
 --------------------5---------5/7-5-4/5-4-5-4\2-2-4----|
 -2------4----5--4-5-3----------------------------------|
 -0------2----3--2-3-3----------------------------------|

* *
L
 
 -------------------------------------------------------|
 -------------------------------------------------------|
 -------------------------------------------------------|
 --------------------5----------------------------------|
 -2------4----5--4-5-3----------------------------------|
 -0------2----3--2-3-3----------------------------------|

* *
[B]  
 
 --------------------------------------------|
 --------------------------------------------|
 ------------------------------PH------PH----|
 ------------7----5--------4-4-4~~-4-4-4~~---|
 -2-----4----5----3--------2-2-----2-2-------|
 -0-----2----5--3-3--------------------------|

* * * * *
L
 
 -------------------------------------------------------|
 ------------------------------------------___----------|
 -----------------------------------------/ \---^-----|
 --------------------5---------5/7-5-4/5-4-5-4\2-2-4----|
 -2------4----5--4-5-3----------------------------------|
 -0------2----3--2-3-3----------------------------------|

* *
R
 
 -------------------------------------------------------|
 -------------------------------------------------------|
 ------------------------------------------___----------|
 -----------------------------------------/ \---^-----|
 -2-----0----2---0-2-3---------3/5-3-2/3-2-3-2-0-0-2----|
 -0-----------------------------------------------------|

[B]  
 
 --------------------------------------------|
 --------------------------------------------|
 ------------------------------PH------PH----|
 ------------7----5--------4-4-4~~-4-4-4~~---|
 -2-----4----5----3--------2-2-----2-2-------|
 -0-----2----5--3-3--------------------------|

* * * * *
1:51
L
 
 -------------------------------------------------|
 -------------------------------------------------|
 ---------------12-11-12-14---------------12-14---|
 ------------9---X--X--X--X----------------X--X---|
 -2-----/7-----/10--9/10-12---------------10/12---|
 -0-----------------------------------------------|

R
 
 -------------------------------------------------|
 -------------------------------------------------|
 ---------------16--11---7-----------------5-7----|
 ----------------X---X---X-----------------X-X----|
 -2-------------14---9---5-----------------3/5----|
 -0-----------------------------------------------|

L
 
 -------------------------------------------------|
 -------------------------------------------------|
 ---------------12-11-12-11-----------------------|
 ------------9---X--X--X--X-----------------------|
 -2-----/7-----/10--9/10--9-----------------------|
 -0-----------------------------------------------|

R
 
 -------------------------------------------------|
 -------------------------------------------^-----|
 ---------------12--11---7---------------/11-12~~-|
 ----------------X---X---X------------------------|
 -2-------------10---9---5------------------------|
 -0-----------------------------------------------|

L
 
 -------------------------------------------------|
 -------------------------------------------------|
 ---------------12-11-12-14---------------12-14---|
 ------------9---X--X--X--X----------------X--X---|
 -2-----/7-----/10--9/10-12---------------10/12---|
 -0-----------------------------------------------|

R
 
 -------------------------------------------------|
 -------------------------------------------------|
 ---------------16--11---7-----------------5-7----|
 ----------------X---X---X-----------------X-X----|
 -2-------------14---9---5-----------------3/5----|
 -0-----------------------------------------------|

OVERDUB
 
 -------------------------------------------------|
 -------------------------------------------------|
 -16--12-12--14-14---16--12-14-14---------12-14---|
 --X---X--X---X--X----X---X--X--X----------X--X---|
 -14-\10-10-/12-12---14--10/12-12---------10/12---|
 -------------------------------------------------|

L
 
 -------------------------------------------------|
 -------------------------------------------------|
 ---------------12-11-12-11-----------------------|
 ------------9---X--X--X--X-----------------------|
 -2-----/7-----/10--9/10--9-----------------------|
 -0-----------------------------------------------|

R
 
 -------------------------------------------------|
 -------------------------------------------^-----|
 ---------------12--11---7---------------/11-12~~-|
 ----------------X---X---X------------------------|
 -2-------------10---9---5------------------------|
 -0-----------------------------------------------|

OVERDUB
 
 -------------------------------------------------|
 -------------------------------------------------|
 -16--12-12--14-14---16--12-14-14-----------------|
 --X---X--X---X--X----X---X--X--X-----------------|
 -14-\10-10-/12-12---14--10/12-12-----------------|
 -------------------------------------------------|

2:26
MELODY
 
 -------------------------------------------------|
 -------------------------------------------------|
 -------16-17---16-----------16-17--------17------|
 -14-17-----------17-14---17-----------14---------|
 -----------------------------------15------------|
 -------------------------------------------------|

RYTHM
 
 -------------------------------------------------|
 -------------------------------------------------|
 -------------------------------------------------|
 -------------------------------------------------|
 -2-----------------------------------------------|
 -0----------------------------3----3----2--------|

MELODY
 
 -----------------------------------------|
 -----------------------------------------|
 -------16-17---16---19--17-16-17---------|
 -14-17-----------17--------------17-17---|
 -----------------------------------------|
 -----------------------------------------|

RYTHM
 
 -----------------------------------------|
 -----------------------------------------|
 ----------------------4--4---4-----------|
 ----------------------5--5---5-----------|
 -2--------------------3--3---3-----------|
 -0------------------3-3--3-3-3--3-3~-----|

* *
MELODY
 
 -------------------------------------------------|
 -------------------------------------------------|
 -------16-17---16-----------16-17--------17------|
 -14-17-----------17-14---17-----------14---------|
 -----------------------------------15------------|
 -------------------------------------------------|

RYTHM
 
 -------------------------------------------------|
 -------------------------------------------------|
 -------------------------------------------------|
 -------------------------------------------------|
 -2-----------------------------------------------|
 -0----------------------------3----3----2--------|

MELODY
 
 -----------------------------------------|
 -----------------------------------------|
 -------16-17---16---19--17-16-17---------|
 -14-17-----------17--------------17-17---|
 -----------------------------------------|
 -----------------------------------------|

RYTHM
 
 -----------------------------------------|
 -----------------------------------------|
 ----------------------4--4---4-----------|
 ----------------------5--5---5-----------|
 -2--------------------3--3---3-----------|
 -0------------------3-3--3-3-3--3-3~-----|

* *
2:45
MELODY
 
 --17----------------------------------------------|
 -----17-19----17-19-----------17-17-15-15-13-13-13|
 -----------16-------14----------------------------|
 --------------------------------------------------|
 --------------------------------------------------|
 --------------------------------------------------|

RYTHM
 
 ------------------------------------------------|
 ------------------------------------------------|
 ------------------------------------------------|
 ------------------------------------------------|
 --7-----5---------------------------------------|
 ----------------5-------------------------------|

MELODY
 
 --17--------------------------15-15/17-17\14-14-|
 -----17-19----15-17----17-19--------------------|
 -----------16-------16--------------------------|
 ------------------------------------------------|
 ------------------------------------------------|
 ------------------------------------------------|

RYTHM
 
 ------------------------------------------------|
 ------------------------------------------------|
 ------------------------------------------------|
 ------------------------------------------------|
 --7-----3-------2----------/3--3\2--2-----------|
 ---------------------------------------3--3-----|

MELODY
 
 --17----------------------------------------------|
 -----17-19----17-19-----------17-17-15-15-13-13-13|
 -----------16-------14----------------------------|
 --------------------------------------------------|
 --------------------------------------------------|
 --------------------------------------------------|

RYTHM
 
 ------------------------------------------------|
 ------------------------------------------------|
 ------------------------------------------------|
 ------------------------------------------------|
 --7-----5---------------------------------------|
 ----------------5-------------------------------|

MELODY
 
 --17--------------------------15-15/17-17\14-14-|
 -----17-19----15-17----17-19--------------------|
 -----------16-------16--------------------------|
 ------------------------------------------------|
 ------------------------------------------------|
 ------------------------------------------------|

RYTHM
 
 ------------------------------------------------|
 ------------------------------------------------|
 ------------------------------------------------|
 ------------------------------------------------|
 --7-----3-------2----------/3--3\2--2-----------|
 ---------------------------------------3--3-----|

3:02
 
 --------------------------------------------------------------------|
 --------------------------------------------------------------------|
 --------------------------------------------------------------------|
 --^----7----------^------7-7-7-7----^----7----------^------2-2-2-2--|
 -5-7-7-5-7-----7-5-7-7-7-8-8-8-8---5-7-7-5-7-----7-5-7-7-7-3-3-3-3--|
 -5-5-5-5-5-----5-5-5-5-5-5-5-5-5---5-5-5-5-5-----5-5-5-5-5-1-1-1-1--|
 --------------------------------------------------------------------|
 --------------------------------------------------------------------|
 --------------------------------------------------------------------|
 --^----7----------^------7-7-7-7----^----7----------^------2-2-2-2--|
 -5-7-7-5-7-----7-5-7-7-7-8-8-8-8---5-7-7-5-7-----7-5-7-7-7-3-3-3-3--|
 -5-5-5-5-5-----5-5-5-5-5-5-5-5-5---5-5-5-5-5-----5-5-5-5-5-1-1-1-1--|

3:20
[A] [A]  
 
 -----0-------------------------0---------------------|
 -----0-------------------------0---------------------|
 -----0------_____--------------0---------------------|
 -----0-----/ \-------------0---------------------|
 -2------7-9/10\9-7-7/9\7\5--2------7-9/10\9-7-7/9\7--|
 -0--------------------------0------------------------|

[A] [A]  
 
 -----0-------------------------0---------------------|
 -----0-------------------------0---------------------|
 -----0------_____--------------0---------------------|
 -----0-----/ \-------------0------------5---4----|
 -2------7-9/10\9-7-7/9\7\5--2-------4-5---4-3---2----|
 -0--------------------------0-----0-2-3-0-2-3-2-2----|

* * * * *
3:38
MELODY
 
 -------------------------------------------------|
 -------------------------------------------------|
 -------16-17---16-----------16-17--------17------|
 -14-17-----------17-14---17-----------14---------|
 -----------------------------------15------------|
 -------------------------------------------------|

RYTHM
 
 -------------------------------------------------|
 -------------------------------------------------|
 -------------------------------------------------|
 -------------------------------------------------|
 -2-----------------------------------------------|
 -0----------------------------3----3----2--------|

MELODY
 
 -----------------------------------------|
 -----------------------------------------|
 -------16-17---16---19--17-16-17---------|
 -14-17-----------17--------------17-17---|
 -----------------------------------------|
 -----------------------------------------|

RYTHM
 
 -----------------------------------------|
 -----------------------------------------|
 ----------------------4--4---4-----------|
 ----------------------5--5---5-----------|
 -2--------------------3--3---3-----------|
 -0------------------3-3--3-3-3--3-3~-----|

* *
MELODY
 
 -------------------------------------------------|
 -------------------------------------------------|
 -------16-17---16-----------16-17--------17------|
 -14-17-----------17-14---17-----------14---------|
 -----------------------------------15------------|
 -------------------------------------------------|

RYTHM
 
 -------------------------------------------------|
 -------------------------------------------------|
 -------------------------------------------------|
 -------------------------------------------------|
 -2-----------------------------------------------|
 -0----------------------------3----3----2--------|

MELODY
 
 -----------------------------------------|
 -----------------------------------------|
 -------16-17---16---19--17-16-17---------|
 -14-17-----------17--------------17-17---|
 -----------------------------------------|
 -----------------------------------------|

RYTHM
 
 -----------------------------------------|
 -----------------------------------------|
 ----------------------4--4---4-----------|
 ----------------------5--5---5-----------|
 -2--------------------3--3---3-----------|
 -0------------------3-3--3-3-3--3-3~-----|

* *
MELODY
 
 --17----------------------------------------------|
 -----17-19----17-19-----------17-17-15-15-13-13-13|
 -----------16-------14----------------------------|
 --------------------------------------------------|
 --------------------------------------------------|
 --------------------------------------------------|

RYTHM
 
 ------------------------------------------------|
 ------------------------------------------------|
 ------------------------------------------------|
 ------------------------------------------------|
 --7-----5---------------------------------------|
 ----------------5-------------------------------|

MELODY
 
 --17--------------------------15-15/17-17\14-14-|
 -----17-19----15-17----17-19--------------------|
 -----------16-------16--------------------------|
 ------------------------------------------------|
 ------------------------------------------------|
 ------------------------------------------------|

RYTHM
 
 ------------------------------------------------|
 ------------------------------------------------|
 ------------------------------------------------|
 ------------------------------------------------|
 --7-----3-------2----------/3--3\2--2-----------|
 ---------------------------------------3--3-----|

MELODY
 
 --17----------------------------------------------|
 -----17-19----17-19-----------17-17-15-15-13-13-13|
 -----------16-------14----------------------------|
 --------------------------------------------------|
 --------------------------------------------------|
 --------------------------------------------------|

RYTHM
 
 ------------------------------------------------|
 ------------------------------------------------|
 ------------------------------------------------|
 ------------------------------------------------|
 --7-----5---------------------------------------|
 ----------------5-------------------------------|

MELODY
 
 --17--------------------------15-15/17-17\14-14-|
 -----17-19----15-17----17-19--------------------|
 -----------16-------16--------------------------|
 ------------------------------------------------|
 ------------------------------------------------|
 ------------------------------------------------|

RYTHM
 
 ------------------------------------------------|
 ------------------------------------------------|
 ------------------------------------------------|
 ------------------------------------------------|
 --7-----3-------2----------/3--3\2--2-----------|
 ---------------------------------------3--3-----|

R
 
 -------------------------------------------------------|
 ------------------------------------------___----------|
 -----------------------------------------/ \---^-----|
 --------------------5---------5/7-5-4/5-4-5-4\2-2-4----|
 -2------4----5--4-5-3----------------------------------|
 -0------2----3--2-3-3----------------------------------|

* *
L
 
 -------------------------------------------------------|
 -------------------------------------------------------|
 -------------------------------------------------------|
 --------------------5----------------------------------|
 -2------4----5--4-5-3----------------------------------|
 -0------2----3--2-3-3----------------------------------|

* *
[B]  
 
 --------------------------------------------|
 --------------------------------------------|
 ------------------------------PH------PH----|
 ------------7----5--------4-4-4~~-4-4-4~~---|
 -2-----4----5----3--------2-2-----2-2-------|
 -0-----2----5--3-3--------------------------|

* * * * *
L
 
 -------------------------------------------------------|
 ------------------------------------------___----------|
 -----------------------------------------/ \---^-----|
 --------------------5---------5/7-5-4/5-4-5-4\2-2-4----|
 -2------4----5--4-5-3----------------------------------|
 -0------2----3--2-3-3----------------------------------|

* *
R
 
 -------------------------------------------------------|
 -------------------------------------------------------|
 ------------------------------------------___----------|
 -----------------------------------------/ \---^-----|
 -2-----0----2---0-2-3---------3/5-3-2/3-2-3-2-0-0-2----|
 -0-----------------------------------------------------|

[B]  
 
 --------------------------------------------|
 --------------------------------------------|
 --------------------------------------------|
 ------------7----5---------4----------------|
 -2-----4----5----3---------2---------2------|
 -0-----2----5--3-3---------2---3--2--0------|

*

Important: The song above is NOT stored on the Chordie server. The original song is hosted at www.guitaretab.com. Chordie works as a search engine and provides on-the-fly formatting. Chordie does not index songs against artists'/composers' will. To remove this song please click here.

Text color:
Chord color:
Chord grids: 
Font size:    
Page size: 

A B
Rate #1 of 2 versions

Login - add to songbook

SHARE PAGE  




You need to log in to post comments