Guitar Tabs, Chords and Lyrics
Major upgrade!! After one year development the new version of Chordie is now online! Please give feedback.


Una casa con 10 pinos  Pappo

Pappo's Blues - Una Casa con 10 Pinos
Chords: E A G D B e
G: 3 2 0 0 3 3
E: 0 2 2 0 0 0
A: x 0 2 2 2 0
D: x 3 5 5 4 3
Gm: 3 5 5 3 3 3
C#5: x 4 6 6 x x
D5: x 5 7 7 7 5
C: x 3 2 0 1 0
D: x x 0 2 3 2
Intro: G - E (x2)
[A]Una casa con 10 [E]pinos
[A]Hacia el sur hay un [E]lugar
[D]Ahora mismo voy a[Gm]lla
[D]Porque ya no aguant[Gm]o mas
[C#5]No aguanto mas
No aguanto [D5]mas
Vivir en la ciud[E]ad
[G]Solo humo y sole[E]dad
[G]Nada mas que respi[E]rar
Nunca [C]mas
Nunca [D]mas
En la ciu[E]dad
[A]Un jardin y mis ami[E]gos
[A]No se pueden compa[E]rar
[D]Con el humo infer[Gm]nal
[D]De esta guerra de ambi[Gm]cion
[C#5]Para lograr
O conse[D5]guir
Prestigio en la ciu[E]dad
[G]Dinero y nada [E]mas
[G]Sin tiempo de obser[E]var
Un jardin
Bajo el [D]sol
Antes de mo[E]rir
Solo
[-----]  
Symbols: b = bend
br = bend, then release
bh = bend and hold
r = release bend, only used after bh
h = hammer-on
p = pull-off
/ = slide
~ = vibrato
 
 e|-12-12-12h14---------|-14-----------------------------------|
 B|--------------12/14~-|----17-14-----------------------------|
 G|---------------------|----------16br(18)h14-----------------|
 D|---------------------|----------------------16--14h16-14~---|
 A|---------------------|--------------------------------------|
 E|---------------------|--------------------------------------|
 e|---------------------------------|----------17-----------------------|
 B|---------------------------------|-------------17--------------------|
 G|-------------16br(18)h14-16b(18)-|-16bh(18)-------r16-14----16br(18)-|
 D|-------14-16---------------------|-----------------------16----------|
 A|-14-16---------------------------|-----------------------------------|
 E|---------------------------------|-----------------------------------|
 e|-----------------|-------------------------------------------------|
 B|-------15h16-16~-|-15-16-16b(18)---15------------------------------|
 G|-15h17-----------|--------------------17---15h17--15---------------|
 D|-----------------|-----------------------------------17-15h17~--15-|
 A|-----------------|-------------------------------------------------|
 E|-----------------|-------------------------------------------------|
 e|--------------|-------------------|--------------------15~-|
 B|-------15-16~-|-15-16-18-18bh(20)-|-r18p16p15--------------|
 G|-15-17--------|-------------------|-----------17p16~-------|
 D|--------------|-------------------|------------------------|
 A|--------------|-------------------|------------------------|
 E|--------------|-------------------|------------------------|
 e|-------------------|------------------|----------15-------------|
 B|-14~-14~-14-14\(0)-|-14~-14~-14-14h15-|-------------------------|
 G|-------------------|------------------|-14bh(16)-----r14h12-----|
 D|-------------------|------------------|---------------------14~-|
 A|-------------------|------------------|-------------------------|
 E|-------------------|------------------|-------------------------|
 e|-15h17-15h17-15~--------|----------15----------------|----------------|
 B|-----------------17-15~-|----------------------------|----------------|
 G|------------------------|-14bh(16)----r14h12-14b(16)-|-14-14br(16)-12-|
 D|------------------------|----------------------------|----------------|
 A|------------------------|----------------------------|----------------|
 E|------------------------|----------------------------|----------------|
 e|-------------15-17br(19)h15-17b(19)-17b(19)-|-22--20--19--/15--12-------|
 B|-------15h17--------------------------------|---------------------15-12-|
 G|-14/16--------------------------------------|---------------------------|
 D|--------------------------------------------|---------------------------|
 A|--------------------------------------------|---------------------------|
 E|--------------------------------------------|---------------------------|
 e|-----------------|-------------------|------------------------------|
 B|-----------------|-------------------|------------------------------|
 G|-14br(16)h12-14~-|----14br(16)h12----|-------12-14br(16)h12-16b(18)-|
 D|-----------------|-12-------------14-|-12h14------------------------|
 A|-----------------|-------------------|------------------------------|
 E|-----------------|-------------------|------------------------------|

[A]No hay preguntas que ha[E]cer
[A]Una simple refle[E]xion
[D]Solo se puede ele[Gm]gir
[D]Oxidarse o resis[Gm]tir
[C#5]Para ganar
O empa[D5]tar
Prefiero yo re[E]ir
[G]Mirar dentro de [E]mi
[G]Fumar o dibu[E]jar
[G]Para que compli[E]car?
[G]Compli[E]car
Keeps on doing G and E until the end

Important: The song above is NOT stored on the Chordie server. The original song is hosted at www.guitaretab.com. Chordie works as a search engine and provides on-the-fly formatting. Chordie does not index songs against artists'/composers' will. To remove this song please click here.

Text color:
Chord color:
Chord grids: 
Font size:    
Page size: 

A C C#5 D D5 E G Gm
Rate #2 of 2 versions

Login - add to songbook

SHARE PAGE  




You need to log in to post comments