Guitar Tabs, Chords and Lyrics
Major upgrade!! After one year development the new version of Chordie is now online! Please give feedback.


Katawan   Parokya ni Edgar

 
 E----------
 B----------
 G----------
 D--7-7-7-7-continuous
 A--7-7-7-7-
 E--5-5-5-5-

 


 


 Verse:


 


 

 
 E-----------
 B-----------
 G-----------

 


 [D--7777--55-]  


 [A--7777--55-]  


 [E--5555--33-]  


 Bridge:


 "Mahilig kami sa magaganda..."


 


 

 
 E---------------------
 B---------------------
 G-9-7--9-7--9-7---5---
 D-9-7--9-7--9-7---5-5-
 A-7-5--7-5--7-5---3-5-
 E-------------------3-

 


 


 Adlib:


 "lala lalala...."


 


 

 
 E-------------
 B-------------

 


 G--777--10\77-


 D--777--10\77-


 

 
 A--555--8-\55-
 E-------------

 


 


 2nd Verse:


 


 

 
 E-----------
 B-----------
 G-----------

 


 [D--7777--55-]  


 [A--7777--55-]  


 [E--5555--33-]  


 Adlib:


 


 

 
 E-------------------
 B----6--5----555/6--
 G-5--5--4----444/5--
 D-5--3--2----222/3--play 2x
 A-3------------------
 E-------------------

 


 


 Coda:


 


 "katawan katawan katawan...o katawan..."


 


 

 
 E-------------------|----------
 B-------------------|----------
 G-55--77--99--10-10-|--10--9---
 D-55--77--99--10-10-|--10--9---
 A-33--55--77--8--8--|--8---7---
 E-------------------|----------

 


 


 Outro:


 


 

 
 E----------
 B----------
 G----------
 D--7-7-7-7-continuous
 A--7-7-7-7-
 E--5-5-5-5-


Important: The song above is NOT stored on the Chordie server. The original song is hosted at www.guitaretab.com. Chordie works as a search engine and provides on-the-fly formatting. Chordie does not index songs against artists'/composers' will. To remove this song please click here.

This song is displayed as text-only. Transposing and tuning is only available for chordpro-songs.
Rate #2 of 5 versions

Jango Player

Login - add to songbook

SHARE PAGE  




You need to log in to post comments