Guitar Tabs, Chords and Lyrics
Login is temporarily disabled for some users. Do not panic. Will be back in an hour or two. DO NOT REREGISTER!!


Menghapus Jejakmu  peterpan

Menghapus Jejakmu
Peterpan
Standard Tuning
[EBGDAE]  
Intro
[Cadd9] 
[D] ~~~~~~
 
 E ||------------------------------|----------------------2h=3----2----------|
 B ||-----------3--------------3---|-------3-------3------------------3------|
 G ||-----------0--------------0---|-------0-------0-------------------------|
 D ||------------------------------|-0---------0-----------------------------|
 A ||------3----------0---3--------|-----------------------------------------|
 E ||------------------------------|-----------------------------------------|

[Bm] [E] 
 
 E ||------------------------------|---------------------------------------|
 B ||------------------------------|---------------------------------------|
 G ||---------4----------------4---|---------------------------------------|
 D ||---------4----------------4---|--------------2-----------2/4---4/5----|
 A ||---2-----------0---2----------|--------------2------------------------|
 E ||------------------------------|--------0----------0---0---------------|

Play It 2X
Verse
[Cadd9]Terus melangkah melupaka[D]nmu
Lelah hati [Bm]perhatikan sikap[Em]mu
[Cadd9]Jalan pikiranmu buatku [D]mragu
Tak mungkin [Bm]ini tetap ber[Em]tahan
[Cadd9]Perlahan mimpi terasa [D]mengganggu
Kucoba [Bm]untuk terus menj[Em]auh
[Cadd9]Perlahan hatiku te[D]rbelenggu
Kucoba u[Bm]ntuk lanjutkan hid[Em]up
[Em]  
 
 E|---------------------------------------------------------------------|
 B|---------------------------------------------------------------------|
 G|----0--------0----------0-------0--------0--------0-------0------0---|
 D|---------4------------------4-----------------4--------------4-------|
 A|---------------------------------------------------------------------|
 E|---------------------------------------------------------------------|

Kau bukan lah segalaku
[Cadd9] [D]  
 
 E|--------------------------|----------3-----------------------------------|
 B|----1-------------------- |----------2-----------------------------------|
 G|----0---------------------|----------3-----------------------------------|
 D|----X---------------------|----------0-----------------------------------|
 A|----3---------------------|----------------------------------------------|
 E|--------------------------|----------------------------------------------|

Bukanya Untuk Hentikan Langkahku
[Bm] [Em]  
 
 E|--------------------------|----------------------------------------|
 B|-----3--------------------|----------X-----------------------------|
 G|-----4--------------------|----------0-----------------------------|
 D|-----4--------------------|----------2-----------------------------|
 A|-----2--------------------|----------2-----------------------------|
 E|--------------------------|----------0-----------------------------|

Play it 2X
Play It Again Like the Verse 1
[Cadd9]Terus melangkah melupaka[D]nmu
Lelah hati [Bm]perhatikan sikap[Em]mu
[Cadd9]Jalan pikiranmu buatku [D]mragu
Tak mungkin [Bm]ini tetap ber[Em]tahan
[Cadd9]Perlahan mimpi terasa [D]mengganggu
Kucoba [Bm]untuk terus menj[Em]auh
[Cadd9]Perlahan hatiku te[D]rbelenggu
Kucoba u[Bm]ntuk lanjutkan hid[Em]up
 
 E|----------------------------------------------------------|
 B|----------------------------------------------------------|
 G|------------------------0-----0----0----0-----------------|
 D|---------4-----------------4-----4----4-------------------|
 A|----------------------------------------------------------|
 E|----------------------------------------------------------|

Kau bukan lah segalaku
[Cadd9] [D]  
 
 E|-----------------------|--------- -3---------------------------------|
 B|----1----------------- |-----------2---------------------------------|
 G|----0------------------|-----------3---------------------------------|
 D|----X------------------|-----------0---------------------------------|
 A|----3------------------|---------------------------------------------|
 E|-----------------------|---------------------------------------------|

Bukanya Untuk Hentikan Langkahku
[Bm] [Em]  
 
 E|--------------------------|--------------------------------------------|
 B|-----3--------------------|-----------X--------------------------------|
 G|-----4--------------------|-----------0--------------------------------|
 D|-----4--------------------|-----------2--------------------------------|
 A|-----2--------------------|-----------2--------------------------------|
 E|--------------------------|-----------0--------------------------------|

Play It 2X
BRIDGE
Lepaskan Segalanya
[Cadd9] [D]  
 
 E|-----------------------|--------- -3---------------------------------|
 B|----1----------------- |-----------2---------------------------------|
 G|----0------------------|-----------3---------------------------------|
 D|----X------------------|-----------0---------------------------------|
 A|----3------------------|---------------------------------------------|
 E|-----------------------|---------------------------------------------|

Lepaskan segalanya
[Bm] [Em]  
 
 E|--------------------------|--------------------------------------------|
 B|-----3--------------------|-----------X--------------------------------|
 G|-----4--------------------|-----------0--------------------------------|
 D|-----4--------------------|-----------2--------------------------------|
 A|-----2--------------------|-----------2--------------------------------|
 E|--------------------------|-----------0--------------------------------|

Section Piano
 
 -------\\\\--------|
 --------\\\\-------|

Guitar
 
 E|----------------------------------------------------------|
 B|----------------------------------------------------------|
 G|------------------------0-----0----0----0-----------------|
 D|---------4-----------------4-----4----4-------------------|
 A|----------------------------------------------------------|
 E|----------------------------------------------------------|

[Cadd9] [D] [Bm] [Em] 
 
 E|------------|--------------|-------------|------------------|
 B|------------|--------------|-------------|------------------|
 G|------------|--------------|-------------|------------------|
 D|--------4---|----2-0-2-----|-------------|---5-4-5-2--------|
 A|--2-4-5-----|----------4---|----0-2-4-5--|------------------|
 E|------------|--------------|-------------|------------------|

Play it 2X
[Cadd9] [D] [Bm] [Em] 
 
 E|--0-2-3-5---|----3-2-3-2---|------0-2-3--|----2-0-2-0------|
 B|------------|--------------|----3--------|-----------------|
 G|------------|--------------|-------------|-----------------|
 D|------------|--------------|-------------|-----------------|
 A|------------|--------------|-------------|-----------------|
 E|------------|--------------|-------------|-----------------|

Play it Until THE END
Please Rate This Tab

Important: The song above is NOT stored on the Chordie server. The original song is hosted at www.guitaretab.com. Chordie works as a search engine and provides on-the-fly formatting. Chordie does not index songs against artists'/composers' will. To remove this song please click here.

Text color:
Chord color:
Chord grids: 
Font size:    
Page size: 

Bm Cadd9 D E Em
Rate #2 of 8 versions

Login - add to songbook

SHARE PAGE  




You need to log in to post comments