Guitar Tabs, Chords and Lyrics
Update 23.10: Songbooks are teporarily down. Will be restored! Might take 24-48h! Sorry for the inconvenience!


Live This Life  Prime Circle

 
 -------------------------------------------------------------------------------

Live This Life - Prime Circle
 
 -------------------------------------------------------------------------------

Tabbed by: Erle Vaughan
Email: erle_vaughan@yahoo.com
Tuning: Standard
Intro
00:00-0:07
Guitar 1 distorted with heavy palm muting with Violin
 
 |------------------PM-----------------|
 e-------------------------------------------------------------|
 B-------------------------------------------------------------|
 G-------------------------------------------------------------|
 D-7-7-7--7-7-7-7--7-7-7--7-7-7--7-7-7-7-----------------------|
 A-7-7-7--7-7-7-7--7-7-7--7-7-7--7-7-7-7-----------------------|
 E-5-5-5--5-5-5-5--5-5-5--5-5-5--5-5-5-5-----------------------|

Verse 1
00:07 - 00:36
Guitar 1 clean
[A] [C] [G] [D]  
 
 e--------------------------------------------------------------------|
 B--------------------------------------------------------------------|
 G------------------5-5-5-5-5-5-5-5-------------------7-7-7-7-7-7-7-7-|
 D-7-7-7-7-7-7-7-7--5-5-5-5-5-5-5-5--5-5-5-5-5-5-5-5--7-7-7-7-7-7-7-7-|
 A-7-7-7-7-7-7-7-7--3-3-3-3-3-3-3-3--5-5-5-5-5-5-5-5--5-5-5-5-5-5-5-5-|
 E-5-5-5-5-5-5-5-5-------------------3-3-3-3-3-3-3-3------------------|

Haven?t you wondered haven't guest haven?t dreamed what?s coming around us;
Haven?t you foreseen master plan all of this hold it in your hand;
Deep inside you light a flame don't just stay down just get up again;
Can?t hear it it's a sign to live live live live this LIFE!!!!!
Chorus
00:36-00:50
Guitar 1 distorted |-not 100% about
This but you
Get the idea-|
[A] [C] [G] [D]  
 
 e--------------------------------------------------------------------|
 B--------------------------------------------------------------------|
 G------------------5-5-5-----------------------------7-7-7-7-7-7-7-7-|
 D-7-7-7------------5-5-5------------5-5-5------------7-7-7-7-7-7-7-7-|
 A-7-7-7------------3-3-3------------5-5-5------------5-5-5-5-5-5-5-5-|
 E-5-5-5-----------------------------3-3-3----------------------------|

Guitar 2 distorted
 
 e--------------------------------------------------------------------|
 B--------------------------------------------------------------------|
 G-------7/9-9-9-9--------7/9-12-7---------7/9-9-9-9------------------|
 D----------------------------------------------------9/10\9-7--------|
 A--------------------------------------------------------------------|
 E--------------------------------------------------------------------|

Verse 2
00:50-01:17
Guitar 1/2 clean archipelago picking type of thing
(You got to bugger around with this a bit)
[Asus2] [Em/C]  
 
 e--------------------------------------------------------------------|
 B-------0------------0------------------0------------0---------------|
 G-----2---2--------2---2--------------0---0--------0---0-------------|
 D---2-------2----2-------2----------2-------2----2-------2-----------|
 A-0------------0------------------3------------3---------------------|
 E--------------------------------------------------------------------|

(There is some alternate stuff on this, which I?m too lazy too tab,
However if you can hear it you can just play it, if you can't then it
shouldn't really bother you)
[Asus2]Now there?s something something strange be
[Em/C]Getting older, little bolder
[Asus2]I can see a new surrounding
[Em/C]Yeah
[Asus2]Oh life's about perception hope you can see the proof
[Em/C]If you living in a palace or you got no roof
[Asus2]Stop complaining all the time
[Em/C]Your now
Chorus 1
01:17-01:32
Guitar 1 distorted |-not 100% about
This but you
Get the idea-|
[A5] [C5] [G5] [D5]  
 
 e--------------------------------------------------------------------|
 B--------------------------------------------------------------------|
 G------------------5-5-5-----------------------------7-7-7-7-7-7-7-7-|
 D-7-7-7------------5-5-5------------5-5-5------------7-7-7-7-7-7-7-7-|
 A-7-7-7------------3-3-3------------5-5-5------------5-5-5-5-5-5-5-5-|
 E-5-5-5-----------------------------3-3-3----------------------------|

Guitar 2 distorted
 
 e--------------------------------------------------------------------|
 B--------------------------------------------------------------------|
 G-------7/9-9-9-9--------7/9-12-7---------7/9-9-9-9------------------|
 D----------------------------------------------------9/10\9-7--------|
 A--------------------------------------------------------------------|
 E--------------------------------------------------------------------|

Come and go what to say making moves running away
Live this life everyday living it up
Verse 3
01:32-01:58
Guitar the same as Verse 2
Time is of the essence
Try to keep in track
Once it?s gone it?s gone
It?s never ever coming back
Sometimes hard to handle yeah
Hmmmm now
Guitar the same as Verse 2 but with p/muted distortion
Please forgive for the times
When I did not see you
Didn?t realize what I had
And put you through
Feeling coming taking time yeah
Chorus 2
01:58-02:13
Guitar 1 distorted |-not 100% about
This but you
Get the idea-|
[A5] [C5] [G5] [D5]  
 
 e--------------------------------------------------------------------|
 B--------------------------------------------------------------------|
 G------------------5-5-5-----------------------------7-7-7-7-7-7-7-7-|
 D-7-7-7------------5-5-5------------5-5-5------------7-7-7-7-7-7-7-7-|
 A-7-7-7------------3-3-3------------5-5-5------------5-5-5-5-5-5-5-5-|
 E-5-5-5-----------------------------3-3-3----------------------------|

Guitar 2 distorted
 
 e--------------------------------------------------------------------|
 B--------------------------------------------------------------------|
 G-------7/9-9-9-9--------7/9-12-7---------7/9-9-9-9------------------|
 D----------------------------------------------------9/10\9-7--------|
 A--------------------------------------------------------------------|
 E--------------------------------------------------------------------|

Come and go what to say making moves running away
Live this life everyday living it up
Verse 4
02:13-02:45
guitar same as verse 1
Haven?t you wondered?
Haven?t guest
Haven?t dreamed
What?s coming around us?
Haven?t you foreseen
Master plan
All of this hold it in your hand;
Deep inside you
Light a flame
Don?t just stay down j
Just get up again;
Can?t hear it
It?s a sign
To live live live live this LIFE!!!!!
Chorus 3
01:58-02:13
Guitar 1 distorted |-not 100% about
This but you
Get the idea-|
[A5] [C5] [G5] [D5]  
 
 e--------------------------------------------------------------------|
 B--------------------------------------------------------------------|
 G------------------5-5-5-----------------------------7-7-7-7-7-7-7-7-|
 D-7-7-7------------5-5-5------------5-5-5------------7-7-7-7-7-7-7-7-|
 A-7-7-7------------3-3-3------------5-5-5------------5-5-5-5-5-5-5-5-|
 E-5-5-5-----------------------------3-3-3----------------------------|

Guitar 2 distorted
 
 e--------------------------------------------------------------------|
 B--------------------------------------------------------------------|
 G-------7/9-9-9-9--------7/9-12-7---------7/9-9-9-9------------------|
 D----------------------------------------------------9/10\9-7--------|
 A--------------------------------------------------------------------|
 E--------------------------------------------------------------------|

Come and go what to say making moves running away
Live this life everyday living it up
| / slide up
| \ slide down
| h hammer-on
| p pull-off
| ~ vibrato
| + harmonic
| x Mute note
===============================================================================

Important: The song above is NOT stored on the Chordie server. The original song is hosted at www.guitaretab.com. Chordie works as a search engine and provides on-the-fly formatting. Chordie does not index songs against artists'/composers' will. To remove this song please click here.

Text color:
Chord color:
Chord grids: 
Font size:    
Page size: 

A A5 Asus2 C C5 D D5 Em/C G G5
Rate #2 of 2 versions

Login - add to songbook

SHARE PAGE  




You need to log in to post comments