Guitar Tabs, Chords and Lyrics
Major upgrade!! After one year development the new version of Chordie is now online! Please give feedback.


With Ravenous Hunger   Satyricon

 
 |-----------------------------|------------------------------|
 |-----------------------------|------------------------------|
 |----------------------7------|------------------------------|
 |--8-----/4-----/8-------9-8--|---8----/4-----/8----3----2---|
 |--6-----/2-----/6------------|---6----/2-----/6----5----4---|
 |--6-----/2-----/6------------|---6----/2-----/6----5----4---|

 


 " " " " " " " " x2


 Riff 2


 

 
 |-------------------------------------|---------------------------------|
 |-------------------------------------|---------------------------------|
 |-------[6]----------------------[6]--|-----[6]-------------------------|
 |---6------[8]--[7]--6--[7]--[8]------|---6-----[8]--[7]--6----/8---7---|
 |---6----------------6----------------|---6---------------6----/8---7---|
 |---4----------------4----------------|---4---------------4----/6---5---|

 


 " " " " " " x4


 Play Riff 1 x 2


 


 Play Riff 2 x 4


 


 Riff 3


 

 
 |-------------------------------------------|
 |-------------------------------------------|
 |-------------------------------------------|
 |--4--4-4-4-4-4---/8--8-8-8-8-----\3-3------|
 |--2--2-2-2-2-2---/6--6-6-6-6-----\1-1------|
 |--2--2-2-2-2-2---/6--6-6-6-6-----\1-1------|

 


 x10


 


 Riff 4 1st ending 2nd ending


 

 
 |----------------|-----------^----|-----------------------|
 |----------------|-----^-----4----|-----------------------|
 |---------3^-----|-----4----------|---------4^------------|
 |--2------1^-----|----------------|---3-----2^------------|
 |--2------1^-----|----------------|---1-------------------|
 |--0-------------|----------------|---1-------------------|

 


 x3 x1 x1


 


 Riff 5 Gtr 2 Plays at the fourth time


 

 
 |-------------------^---^-----------------|
 |------------------[2]-[1]----------------|
 |-----------------------------------------|
 |-------------0-----0---0-----------------|
 |--0----0-----0-----2---0-----------------|
 |--2----2---------------------------------|

 


 x4


 Riff 5b


 

 
 |----------------------------------------------|
 |------------1---2-----------------------------|
 |-------------------0----^---------------------|
 |--2-----3---------------3---------------------|
 |--2-----1-------------------------------------|
 |--0-----1-------------------------------------|

 


 x4


 Play Riff 5/5b x 4 each


 


 Play Riff 4 x 4


 


 Play Riff 3 x 5


 


 Riff 6 Fill 1


 

 
 |---------------------------------||--------------------|
 |---------------------------------||--------------------|
 |---------------------------------||--------------------|
 |--3-3-3-3-3-3---2-2-2-2-2--------||--2--2-2------------|
 |--1-1-1-1-1-1---2-2-2-2-2--------||--2--2-2------------|
 |--1-1-1-1-1-1---0-0-0-0-0--------||--0--0-0------------|

 


 x4 . . . x1


 


 Play Riff 1 x 2


 


 Play Riff 2 x 4


 


 Fill 2, Play just the first half off Riff 1 three times...


 


 Fill 3


 

 
 ------------------------------|
 ------------------------------|
 ------------------------------|
 --8------5----4---------------|
 --6------3----2---------------|
 --6------3----2---------------|

 


 " " " x1


 Play Riff 1 x 2


 


 Riff 8 - End.


 

 
 |-----------------------------------|
 |-----------------------------------|
 |--------------------2--/1----------|
 |--2-2-2--2-2-2------2--/1----------|
 |--0-0-0--0-0-0------0--/0----------|
 |-----------------------------------|


Important: The song above is NOT stored on the Chordie server. The original song is hosted at www.guitaretab.com. Chordie works as a search engine and provides on-the-fly formatting. Chordie does not index songs against artists'/composers' will. To remove this song please click here.

This song is displayed as text-only. Transposing and tuning is only available for chordpro-songs.
Rate #1 of 2 versions

Login - add to songbook

SHARE PAGE  




You need to log in to post comments