Guitar Tabs, Chords and Lyrics
Server problems seems to be fixed. Chordie has been experiencing problems with songs disappearing. These issues now seems to be fixed, but still verifying the fix. If you find anything strange, please email admin@chordie.com.


Natt  Satyricon

 
 ---------------------------------------------------------------

Satyricon - Satyricon - Natt (2013)
 
 ---------------------------------------------------------------

Tabbed by Sleexus, Norway, september 2013
Standard tuning
Guitar 1 clean 00:00-00:56
[Cm] [Bb] [Cm] [Gm] 
 
 ||----------------------------------------------------------------------|
 ||-------4--3--------------------3-----------------4--------3-----------|
 ||-----5-------5--------5-----------------------------5--------3--------|
 ||--5-------------5--------5--------3-----3--0--5--------5--------------|
 ||-------------------3--------1--------1--------------------------------|
 ||----------------------------------------------------------------------|

[Bb]  
 
 |--------------------||
 |-----3--------------||
 |--------3-----------||
 |--------------3--0--|| x 4
 |--1--------1--------||
 |--------------------||

Guitar 2 clean 00:28-00:56
 
 |--------------------8--8s10----8----------6-----------3----------------|
 |-----------------8----------------8p6--8-----6--4-3-------------3--4---|
 |--------5--7--8-------------------------------------------4--5---------|
 |-----5-----------------------------------------------------------------|
 |--3--------------------------------------------------------------------|
 |-----------------------------------------------------------------------|
 |-----------|
 |--6--4--3--|
 |-----------|
 |-----------|
 |-----------|
 |-----------|

Guitar 1 clean 00:56-01:06
 
 ||----------------------||
 ||-----4--------3-------||
 ||-----5--------3-------||
 ||--5-----5--5-----5----|| x 3
 ||----------------------||
 ||----------------------||

Guitar 2 clean 00:56-01:06
 
 ||--3---3---3---3-------||
 ||--4---4---3---3-------||
 ||--5---5---3---3-------||
 ||----------------------||
 ||----------------------||
 ||----------------------||

Guitar 1 Distortion 01:06-01:09
 
 |----------------------------------------------------------------------------------------|
 |----------------------------------------------------------------------------------------|
 |----------------------------------------------------------------------------------------|
 |--0--1--3--------0----------------------------------------------------------------------|
 |-----------2--3-----2--6--5-------------------------------------------------------------|
 |-----------------------4--3-------------------------------------------------------------|

Guitar 1 Distortion 01:10 - 02:34
 
 ||---------------------------------------------------------------------------------------|
 ||--------4--3h4p3--------------4--3h4p3-----3--------4--3h4p3--------------6--------3---|
 ||-----5------------3--------5------------4--------5------------3-----7--8-----4--5------|
 ||--5------------------6--5---------------------5------------------6---------------------|
 ||---------------------------------------------------------------------------------------|
 ||---------------------------------------------------------------------------------------|
 |-----------||
 |-----------||
 |--4--------||
 |-----6--5--|| x 6
 |-----------||
 |-----------||

Guitar 2 Distortion 02:06 - 02:34 (Drop D tuning)
 
 |----------------------------------------------------------------------------------------|
 |--4--3-------------------------------------8----6---------------------------------------|
 |--------5--------------------------------------------7----5-----------------------------|
 |-----------6--5--3--5----6--5----1----0-------------------------------------------------|
 |-------------------------------------------------------------6--5--3--------------------|
 |----------------------------------------------------------------------6--5--3--5--6--5--|
 |----------------------------------------------------------------------------------------|
 |----------------------------------------------------------------------------------------|
 |----------------------------------------------------------------------------------------|
 |------------5----3----------------------------------------------------------------------|
 |-------5--------------5--3--2-----------------------------------------------------------|
 |--1-------------------------------------------------------------------------------------|

Guitar 1 clean - Outro 02:35 - 03:20
[Cm] [Bb] [Cm] [Gm] 
 
 ||----------------------------------------------------------------------|
 ||-------4--3--------------------3-----------------4--------3-----------|
 ||-----5-------5--------5-----------------------------5--------3--------|
 ||--5-------------5--------5--------3-----3--0--5--------5--------------|
 ||-------------------3--------1--------1--------------------------------|
 ||----------------------------------------------------------------------|

[Bb]  
 
 |--------------------||
 |-----3--------------||
 |--------3-----------||
 |--------------3--0--|| x 2
 |--1--------1--------||
 |--------------------||
 |-----------------------------------------|
 |--------4--3-----------3-----------------|
 |-----5--------3-----------3--------------|
 |--5--------------3--------------3--0-----|
 |--------------------1--------1--------3--|
 |-----------------------------------------|

Glossary
 
 --------

h Hammer-on
p Pull off

Important: The song above is NOT stored on the Chordie server. The original song is hosted at www.guitaretab.com. Chordie works as a search engine and provides on-the-fly formatting. Chordie does not index songs against artists'/composers' will. To remove this song please click here.

Text color:
Chord color:
Chord grids: 
Font size:    
Page size: 

Bb Cm Gm
Rate #2 of 2 versions

Jango Player

Login - add to songbook

SHARE PAGE  




You need to log in to post comments