Guitar Tabs, Chords and Lyrics
Server problems seems to be fixed. Chordie has been experiencing problems with songs disappearing. These issues now seems to be fixed, but still verifying the fix. If you find anything strange, please email admin@chordie.com.


N17  The Saw Doctors

Intro:
 
 E|-----3---5---6---7---7--------------|---5---7---7--------------|
 B|--------------------------3---5---5-|----------------3---5---5-|
 G|---4---5---6---7---7----4---5---5---|-5---7---7----4---5---5---|
 D|------------------------------------|--------------------------|
 A|------------------------------------|--------------------------|
 E|------------------------------------|--------------------------|

Main riff:
 
 E|---5---7---7--------------|
 B|----------------3---5---5-|
 G|-5---7---7----4---5---5---|
 D|--------------------------|
 A|--------------------------|
 E|--------------------------|

Chords:
-Intro-
[G]Well I didn't see much fu[C]ture
[G]When I left the Christian brothers sch[C]ool
[G]So I waved it goodbye with a wist[C]ful smile
[G]And I left the girls of T[C]uam
[G]And sometimes when I'm remini[C]scing
[G]I see the prefabs and my old frien[C]ds
[G]And I know that they'll be cha[C]nged or gone
[G]By the time I get home ag[C]ain
Chorus:
And I [G]wish I was on that [C]N 17[D]
[D]Stone walls and the grasses green
Yes I [G]wish I was on that [C]N 17[D]
[D]Stone walls and the grasses green
[F]Travelling with j[C]ust my thoughts and d[G]reams
-shortened intro-
[G]Well the old fella left me to Sha[C]nnon
[G]Was the last time I travelled that r[C]oad
[G]and as we turned left at Clareg[C]alway
[G]I could feel a lump in my t[C]hroat
[G]As I pictured the thousands of t[C]imes
[G]That I'd travelled that well worn t[C]rack
[G]And I know that things will be di[C]fferent
[G]If I ever decide to go b[C]ack
-Chorus-
Solo:
 
 e|-----|-----------------------|----------------------|-----------------------|-------------------|
 B|-----|-----------------------|----------------------|-----------------------|-------------------|
 G|-----|-----------------------|----------------------|-----------------------|-------------------|
 D|-----|---------------5-------|--------------5-------|---------------5-------|---------------5---|
 A|-----|---5-----55--7--5-77---|--5-----55--7--5-77---|---5-----55--7--5-77---|---5-----55--7--5-7|
 E|5hold|-7--5-77-------------55|7--5-77-------------55|-7--5-77-------------5-|-7--5-77-----------|

[G]Now as I tumble down h[C]ighways
[G]Or filthy overcrowded tr[C]ains
[G]There's no one to talk to in tra[C]nsit
[G]So I sit there and daydream in v[C]ain
[G]And behind all these muddled up pr[C]oblems
[G]Of living on a foreign s[C]oil
[G]I can still see the twists and t[C]urns in the road
[G]From the square to the town of the tr[C]ibes
-Chorus-
-Intro-
-Main riff til the end-

Important: The song above is NOT stored on the Chordie server. The original song is hosted at www.guitaretab.com. Chordie works as a search engine and provides on-the-fly formatting. Chordie does not index songs against artists'/composers' will. To remove this song please click here.

Text color:
Chord color:
Chord grids: 
Font size:    
Page size: 

C D F G
Rate #1 of 4 versions

Jango Player

Login - add to songbook

SHARE PAGE  




You need to log in to post comments