Guitar Tabs, Chords and Lyrics
Server problems seems to be fixed. Chordie has been experiencing problems with songs disappearing. These issues now seems to be fixed, but still verifying the fix. If you find anything strange, please email admin@chordie.com.


All These Things  Shannon Wright

Flightsafety (1999)
Standard Tuning
Verse Fig.
[Dsus2] [/Bb] [/C]  
 
 E|----0-0--0-0--0-0--0-0--0-0--0-0---------|
 B|----3-3--3-3--3-3--3-3--3-3--3-3---------|
 G|----2-2--2-2--2-2--2-2--2-2--2-2---------|
 D|--0------------------------------2h3p2---|
 A|-------------1---------3--------------3--|
 E|-----------------------------------------|

Chorus:
[F6] [A7]  
 
 E|--1--1-1-1-1--1--1-1-1-1--3--3-3-3-3--3--3-3-3-3--|
 B|--3--3-3-3-3--3--3-3-3-3--2--2-2-2-2--2--2-2-2-2--|
 G|--2--2-2-2-2--2--2-2-2-2--0--0-0-0-0--0--0-0-0-0--|
 D|--3--3-3-3-3--3--3-3-3-3--2--2-2-2-2--2--2-2-2-2--|
 A|--------------------------0--0-0-0-0--0--0-0-0-0--|
 E|--------------------------------------------------|

But all______ of these things____
A7+ A7(II) G
 
 E|--1--1-1-1-1--0--0-0-0-0--3--3-3-3-3--3--3-3-3-3--|
 B|--2--2-2-2-2--2--2-2-2-2--0--0-0-0-0--0--0-0-0-0--|
 G|--0--0-0-0-0--0--0-0-0-0--0--0-0-0-0--0--0-0-0-0--|
 D|--3--3-3-3-3--2--2-2-2-2--0--0-0-0-0--0--0-0-0-0--|
 A|--0--0-0-0-0--0--0-0-0-0--2--2-2-2-2--2--2-2-2-2--|
 E|--------------------------3--3-3-3-3--3--3-3-3-3--|

Don't carry Camelot through the___ betrayed___
[F6] [A7]  
 
 E|--1--1-1-1-1-1------------3-3-3-3--3--3-3-3-3--|
 B|--3--3-3-3-3-3--3/5\3--2--2-2-2-2--2--2-2-2-2--|
 G|--2--2-2-2-2-2--x-x-x--x--0-0-0-0--0--0-0-0-0--|
 D|--3--3-3-3-3-3--3/5\3--2--2-2-2-2--2--2-2-2-2--|
 A|--------------------------0-0-0-0--0--0-0-0-0--|
 E|-----------------------------------------------|

Oh all_______ these things___
A7+ A7(II) G G G G
 
 E|--1--1-1-1-1--0--0-0-0-0---3-----3--3--3--|
 B|--2--2-2-2-2--2--2-2-2-2---0-----0--0--0--|
 G|--0--0-0-0-0--0--0-0-0-0---0-----0--0--0--|
 D|--3--3-3-3-3--2--2-2-2-2---0-----0--0--0--|
 A|--0--0-0-0-0--0--0-0-0-0---2-----2--2--2--|
 E|---------------------------3-----3--3--3--|

Don't hold form w/this stout cord & chain
Lyrics & structure:
Intro: Verse Figure x2
Verse 1 (Verse fig x4)
[Dsus2]Under the [/Bb]carport that [/C]has no spring
[Dsus2]Cement f[/Bb]loors where the [/C]creatures ring
[Dsus2]And your [/Bb]mother she [/C]never calls
[Dsus2]Says you're the [/Bb]cause to all her [/C]pain
Chorus 1:
But [F6]all these [A7]things
A7+ A7(II) G
Don't carry camelot through the betrayed
Oh [F6]all these [A7]things
A7+ A7(II) G G G G
Don't hold form with this stout cord & chain
Verse fig x2
Verse 2 (Verse fig x4)
[Dsus2]You___ [/Bb]are out of [/C]sorts
[Dsus2]And__ rea[/Bb]dy to r[/C]etire
[Dsus2]On the b[/Bb]rink of my [/C]answer
[Dsus2]I fell a[/Bb]sleep for a [/C]little while
Chorus 2:
But [F6]all these [A7]things
A7+ A7(II) G
Don't carry Camelot through the betrayed
And [F6]all these [A7]things
A7+ A7(II) G (strum normally)
Don't hold form with this stout cord & chain
[F6]All these [A7]things
A7+ A7(II) G
Don't carry Camelot through the betrayed
And [F6]all these [A7]things
A7+ A7(II) G G G G
Don't hold form with this stout cord & chain
Verse fig x4 (piano solo)
Repeat Chorus 1
End on final G - let ring
Notes:
Strumming approximated, not exact.
Chords in the lyrics sync with tab. They're just meant to help with placement.
G could be G7 (320001) in the first half of the chorus
h = hammer-on
p = pull-off
/ = slide (toward bridge)
\ = slide (toward nut)
x = mute string
...though you probably know all that.
Comments welcome.
Great song.

Important: The song above is NOT stored on the Chordie server. The original song is hosted at www.guitaretab.com. Chordie works as a search engine and provides on-the-fly formatting. Chordie does not index songs against artists'/composers' will. To remove this song please click here.

Text color:
Chord color:
Chord grids: 
Font size:    
Page size: 

A7 Dsus2 F6
Rate #1 of 1 versions

Login - add to songbook

SHARE PAGE  



You need to log in to post comments