Guitar Tabs, Chords and Lyrics
Songbooks are teporarily down. Dont panic. Working on recovering it. Dont save new songs in songbooks!


Chamberlain Waits  The Menzingers

The Menzingers - Chamberlain Waits
Intro
 
 E|----------------------------------------------------------|
 B|----------------------------------------------------------|
 G|---5--------5-------55------55-------5--------5-------5---|
 D|---5-5-75---5-------3-3-----3-3------5-5-75---5-------3---|
 A|-/7---7--7-7--7755333--353333--353-/7---7--7-7--7755333---|
 E|----------------------------------------------------------|

Verse goes like this:
[Am]I've been awake for hours, as I watch a
[F]Sunrise come over nothing, while
[Am]Outside the cars start racing, searching for
[F]Something that we could never seem to find or afford.
(Play Intro riff again)
(2nd verse is the same, except also play G chord at the end)
Chorus:
Chambe[C]rlain's waiting down at the bottom of the
[Am]city of hell, or heaven itself, as the
[F]whistle she sings, my hands building weapons for [G]kings.
While so[C]mebody's drinking my last rations of
[Am]Victory gin, I'm sober as sin, as my
[F]hands start to shake, I fill with post-modern [G]debates,
While Chamberlain's waiting!
Solo:
[Am] [F]  
 
 E|----------------------------------------------------------|
 B|----------------------------------------------------------|
 G|-8b8875-58b8875-5-575-5--------575-5----------------------|
 D|-------7-------7-----7-75-75-5----7-75755-----------------|
 A|----------------------------7-7----------75---------------|
 E|----------------------------------------------------------|

[Am] [F]  
 
 E|----------------------------------------------------------|
 B|----------------------------------------------------------|
 G|-------------5577-75-75-75-75-55-888875-5888875-55--------|
 D|---------5577-------7--7--7--7---------7-------7--757-----|
 A|-00335577-------------------------------------------------|
 E|----------------------------------------------------------|

[C] [F] [C] 
Bu[F]ild our mistakes to the clouds, then blame us for dreaming out loud.
(now play half of the Intro bit)

Important: The song above is NOT stored on the Chordie server. The original song is hosted at www.guitaretab.com. Chordie works as a search engine and provides on-the-fly formatting. Chordie does not index songs against artists'/composers' will. To remove this song please click here.

Text color:
Chord color:
Chord grids: 
Font size:    
Page size: 

Am C F G
Rate #1 of 2 versions

Login - add to songbook

SHARE PAGE  




You need to log in to post comments