Guitar Tabs, Chords and Lyrics
Songbooks are teporarily down. Dont panic. Working on recovering it. Dont save new songs in songbooks!


Tasker-Morris Station  The Menzingers

 
 -----------------------------------------------------------------------------

TASKER-MORRIS STATION - The Menzingers
 
 -----------------------------------------------------------------------------

Tabbed by: Mean Mr Mustard
Email: Gotchristo@comcast.net
Great song. Someone asked me to do this one, but I actually have wanted to figure this
one out for a while and just got the motivation. So here it is. I figured it out pretty
quickly, so I may have left some lead stuff out, but it's all based around that D chord.
TUNING: Standard
CHORDS:
 
 D - x-x-0-2-3-2 or x-5-7-7-7-5-|
 Bm - x-2-4-4-3-2-------------------|
 G - 3-2-0-0-3-3-------------------|
 F#m - 2-4-4-2-2-2-------------------|
 A - 5-7-7-6-5-5-------------------|

INTRO: (w/ Intro lead)
[D]  
VERSE: (w/ verse lead)
[D]I never loved you [Bm]but I tried to,
[D]and you were so am[Bm]biguous,
[D]We blamed the [Bm]faulty wires,
D Bm D (fill 1)
When we found our blood was pumped from stone.
VERSE: (w/ verse lead)
[D]My memory is [Bm]fading faster,
[D]I never bought a [Bm]warranty,
[D]When I called and [Bm]said I was leaving,
[D]You were one step a[Bm]head of me.
INTERLUDE:
[G]Cold blankets, cold shoulders,
[F#m]Missed calls and apologies,
[D]But I met the other you, I met the other you,
[G]Cold blankets, cold shoulders,
[F#m]They?ve been there since I met
A D Bm (w/ interlude lead)
You,at Tasker-Morris Station.
CHORUS: (w/ Intro lead)
[D]So come back down to the middle where I?ve been,
Settling into, with or without you.
[D]Come back down to the middle where I?ve been,
Settling into, with or without you.
VERSE(w/ verse lead)
[D]But what do [Bm]I know,
[D]But what do [Bm]I know,
[D]But what do [Bm]I know,
[D]Except our [Bm]blood is pumped from stone.
OUTRO:
D (fill 1)
INTRO Lead:
 
 e|-----------------15h14----------------------------|
 B|-----3----------------15------------------3-3-3-3-|
 G|---2--------------------------------------2-2-2-2-|
 D|-0--------------------------12------------0-0-0-0-|
 A|--------------------------------------------------|
 E|--------------------------------------------------|

|
 
 G|---------------------------------------------------|
 D|---------------------------------------------------|
 A|-5-5-5-7\9-9-9-9-9-9-9-9-9-5-5-5-7\9-9-9-9-9-9-9-9-|
 E|---------------------------------------------------|

Verse lead:
 
 e|---------5-----------------|
 B|-5-7-5---------5-7-5-------|
 G|-------7-------------7-6---|
 D|---------------------------|
 A|---------------------------|
 E|---------------------------|

Interlude Lead:
[D] [Bm]  
 
 e|-5-5-----5-5-----5-5-----5-5-------------------------------------|
 B|-----7-7-----7-7-----7-7-----7-7-3-3-3-3-5-5-5-5-7-7-7-7-7-7-7-7-|
 G|-----------------------------------------------------------------|
 D|-----------------------------------------------------------------|
 A|-----------------------------------------------------------------|
 E|-----------------------------------------------------------------|

Fill 1 "Stooooo-o-o-o-ooo-ooone
[D]  
 
 e|-5-5-5-7-7-7-7-7-7-7-7-7-7-7-|--|
 B|-7---------------------------|--|
 G|-----------------------------|x4|
 D|-----------------------------|--|
 A|-----------------------------|--|
 E|-----------------------------|--|


Important: The song above is NOT stored on the Chordie server. The original song is hosted at www.guitaretab.com. Chordie works as a search engine and provides on-the-fly formatting. Chordie does not index songs against artists'/composers' will. To remove this song please click here.

Text color:
Chord color:
Chord grids: 
Font size:    
Page size: 

Bm D F#m G
Rate #1 of 1 versions

Login - add to songbook

SHARE PAGE  



You need to log in to post comments