Guitar Tabs, Chords and Lyrics
Songbooks are teporarily down. Dont panic. Working on recovering it. Dont save new songs in songbooks!


Sculptors and Vandals  The Menzingers

 
 -----------------------------------------------------------------------------

SCULPTORS AND VANDALS - The Menzingers
 
 -----------------------------------------------------------------------------

Here you are, another off the new album. Wasn't too hard to figure out, should be
accurate. Tabs are at the bottom.
Tuning: Half-step down, CAPO ON 3RD FRET
VERSE:(w/ lead)
[C]I remember when you came around
I was [F]younger, Burning statues to the ground
[C]Now I'm older and tired
I no longer see the [F]differences
[C]I remember the taste of the fruit
[F]Just remember all we knew
[C]Said we wanted to be interesting
[F]Then we fell asleep
BRIDGE: (w/ lead)
[Am]These days you'll [C]find me where the [F]nectar's plenty
[Am]Looks are [C]cheap and the [F]talk is heavy
[Am]Liars [C]lie to them[F]selves
[Am]Liars [C]lie to them[F]selves
VERSE 2: (w/ lead)
[C]You said, "Sometimes I need you around"
And he said, "[F]If my convenience is just so convenient"
[C]You said you wanted to be interesting
[F]Then you fell asleep
BRIDGE:
[Am]These days you'll [C]find me where the [F]nectar's plenty
[Am]Looks are [C]cheap and the [F]talk is heavy
[Am]Liars [C]lie to them[F]selves
[Am]Liars [C]lie to them[F]selves
OUTRO: (w/ lead)
C Am F x2
C Am F x4
Walk home single, seeing double
INTRO/VERSE:
[C] [F]  
 
 eb|-------3---0-------0-------------|-------3---0-------0-------0------|
 Bb|---------------3-------3---1---1-|-----1---------3-------3-------1--|
 Gb|-----0-------------------0---0---|---2-----2---2---2---2---2---2----|
 Db|---2-----2---2---2---2-----------|-3--------------------------------|
 Ab|-3-------------------------------|----------------------------------|
 Eb|---------------------------------|----------------------------------|

BRIDGE:
[Am] [C] [F]  
 
 eb|-----------------------1----------|
 Bb|-----1-------1-------1-----1------|
 Gb|-------------------2-----------2--|
 Db|---2-------2-----3-------3---3----|
 Ab|-0-----0-3-----3------------------|
 Eb|----------------------------------|

VERSE 2: (still relative to capo)
[C] [F]  
 
 eb|-----------------------------|-----------------------------|
 Bb|-----------------------------|-----------------------------|
 Gb|-5-5--5-5-5--5-5-5--5-4-4--4-|-5-5--5-5-5--5-5-5--5-7-7--7-|
 Db|-x-x--x-x-x--x-x-x--x-x-x--x-|-x-x--x-x-x--x-x-x--x-x-x--x-|
 Ab|-3-3--3-3-3--3-3-3--3-2-2--2-|-3-3--3-3-3--3-3-3--3-5-5--5-|
 Eb|-----------------------------|-----------------------------|

[C] [F]  
 
 eb|-----------------------------|-----------------------------|
 Bb|-----------------------------|-----------------------------|
 Gb|-9-9--9-9-9--9-1010-109-9--9-|-5-5--5-5-5--5-5-5--5-4-4--4-|
 Db|-x-x--x-x-x--x-x-x--x-x-x--x-|-x-x--x-x-x--x-x-x--x-x-x--x-|
 Ab|-7-7--7-7-7--7-8-8--8-7-7--7-|-3-3--3-3-3--3-3-3--3-2-2--2-|
 Eb|-----------------------------|-----------------------------|

OUTRO:
[C] [Am] [F]  
 
 eb|-------------------------------|
 Bb|--5-6h5-3-5~~~-5-6h5-5/3--1~~--|
 Gb|-------------------------------|
 Db|-------------------------------|
 Ab|-------------------------------|
 Eb|-------------------------------|


Important: The song above is NOT stored on the Chordie server. The original song is hosted at www.guitaretab.com. Chordie works as a search engine and provides on-the-fly formatting. Chordie does not index songs against artists'/composers' will. To remove this song please click here.

Text color:
Chord color:
Chord grids: 
Font size:    
Page size: 

Am C F
Rate #1 of 3 versions

Login - add to songbook

SHARE PAGE  




You need to log in to post comments