Guitar Tabs, Chords and Lyrics
Login is temporarily disabled for some users. Do not panic. Will be back in an hour or two. DO NOT REREGISTER!!


Good Things   The Menzingers

 
 -------------------------------------------------------------------------------

 


 Good Things - The Menzingers


 

 
 -------------------------------------------------------------------------------

 


 Tabbed by: TheMutts


 Tuning: half step down (Eb Ab Db Gb Bb eb)


 


 "I've been having a horrible time..."


 [guitar 1 - sligbt distortion] 


 

 
 |--------0-------0-------0---0---0-------------------------------------------|
 |--------0-------0-------0---0---0-------------------------------------------|
 |--1---1-1-1---1-1-1---1-1-1-1-1-1-------------------------------------------|
 |--2---2---2---2---2---2---2---2---------------------------------------------|
 |--2---2---2---2---2---2---2---2---------------------------------------------|
 |--0---0---0---0---0---0---0---0---------------------------------------------|

 


 |


 [guitar 2 - sligbt distortion] 


 

 
 |----------------------------------------------------------------------------|
 |----------------------------------------------------------------------------|
 |--1---1---------------------------------------------------------------------|
 |--2---2\6---6\11---11\9-9-9-9-9---------------------------------------------|
 |--2---2\6---6\11---11\9-9-9-9-9---------------------------------------------|
 |--0---0\4---4\9-----9\7-7-7-7-7---------------------------------------------|

 


 


 "I've been having a horrible time..."


 [guitar 1 - beavy distortion] 


 

 
 |----------------------------------------------------------------------------|
 |----------------------------------------------------------------------------|
 |--1---1---------------------------------------------------------------------|
 |--2---2\6---6\11---11\9-9-9-9-9---------------------------------------------|
 |--2---2\6---6\11---11\9-9-9-9-9---------------------------------------------|
 |--0---0\4---4\9-----9\7-7-7-7-7---------------------------------------------|

 


 |


 [guitar 2 - beavy distortion] 


 

 
 |----------------------------------------------------------------------------|
 |----------------------------------------------------------------------------|
 |----------------------------------------------------------------------------|
 |--2---2\6---6\11---11\9-9-9-9-9---------------------------------------------|
 |--2---2\6---6\11---11\9-9-9-9-9---------------------------------------------|
 |--0---0\4---4\9-----9\7-7-7-7-7---------------------------------------------|

 


 


 "Why all good things should..."


 [guitar 1 - beavy distortion] 


 

 
 |----------------------------------|-----------------------------------------|
 |----------------------------------|-----------------------------------------|
 |--1---1\5---5\10---10\8-8-8-8-8---|---1-1-1-1-1-1-1-1--11-------------------|
 |--2---2\6---6\11---11\9-9-9-9-9---|---2-2-2-2-2-2-2-2--22-------------------|
 |--2---2\6---6\11---11\9-9-9-9-9---|---2-2-2-2-2-2-2-2--22-------------------|
 |--0---0\4---4\9-----9\7-7-7-7-7---|---0-0-0-0-0-0-0-0--00-------------------|

 


 |


 [guitar 2 - beavy distortion] 


 

 
 |----------------------------------|-----------------------------------------|
 |----------------------------------|-----------------------------------------|
 |----------------------------------|-----------------------------------------|
 |--2---2\6---6\11---11\9-9-9-9-9---|---2-2-2-2-2-2-2-2--22-------------------|
 |--2---2\6---6\11---11\9-9-9-9-9---|---2-2-2-2-2-2-2-2--22-------------------|
 |--0---0\4---4\9-----9\7-7-7-7-7---|---0-0-0-0-0-0-0-0--00-------------------|

 


 


 "I've been having a horrible time..."


 [guitar 1 - sligbt distortion] 


 

 
 |--------0-------0-------0---0---0-------------------------------------------|
 |--------0-------0-------0---0---0-------------------------------------------|
 |--1---1-1-1---1-1-1---1-1-1-1-1-1-------------------------------------------|
 |--2---2---2---2---2---2---2---2---------------------------------------------|
 |--2---2---2---2---2---2---2---2---------------------------------------------|
 |--0---0---0---0---0---0---0---0---------------------------------------------|

 


 |


 [guitar 2 - sligbt distortion] (listen for this lick in verse 2)


 

 
 |------------------------------------|----7----/----9--\----7----------------|
 |------------------------------------|--5---7--/--9----\--7----\--5~---------|
 |--1---1-----------------------------|---------------------------------------|
 |--2---2\6---6\11---11\9-9-9-9-9-----|---------------------------------------|
 |--2---2\6---6\11---11\9-9-9-9-9-----|---------------------------------------|
 |--0---0\4---4\9-----9\7-7-7-7-7-----|---------------------------------------|

 


 


 "Yeah! Yeah! Yeah!"


 [guitar 1 - beavy distortion] 


 

 
 |-----------------------------------------------------------|
 |-----------------------------------------------------------|
 |--4-4-4-4-4-4-4-4-4-4--------------------------------------|
 |--2-2-2-2-2-2-2-2-2-2--------------------------------------|
 |--2-2-2-2-2-2-2-2-2-2--------------------------------------|
 |--0-0-0-0-0-0-0-0-0-0--------------------------------------|

 


 |


 [guitar 2 - beavy distortion] 


 

 
 |-----------------------------------------------------------|
 |-----------------------------------------------------------|
 |--1-1-1-1-1-1-1-1-1-1--------------------------------------|
 |--2-2-2-2-2-2-2-2-2-2--------------------------------------|
 |--2-2-2-2-2-2-2-2-2-2--------------------------------------|
 |--0-0-0-0-0-0-0-0-0-0--------------------------------------|

 


 


 "Like when we would take rides..."


 [guitar 1 - beavy distortion] 


 

 
 |----------------------------------------------------------------------------|
 |----------------------------------------------------------------------------|
 |--6---6/9---9---------------------------------------------------------------|
 |--6---6/9---9-9---9\11-11-11-11-11-11-11----11-11-11-11-11-11-11-11---------|
 |--4---4/7---7-9---9\11-11-11-11-11-11-11----11-11-11-11-11-11-11-11---------|
 |--------------7---7\9--9--9--9--9--9--9-----9--9--9--9--9--9--9--9----------|

 


 |


 [guitar 2 - beavy distortion] 


 

 
 |----------------------------------------------------------------------------|
 |----------------------------------------------------------------------------|
 |--6---6/9---9---------------------------------------------------------------|
 |--6---6/9---9-9---9\11-11-11-11-11-11-11----11-11-11-11-11-11-11-11---------|
 |--4---4/7---7-9---9\11-11-11-11-11-11-11----11-11-11-11-11-11-11-11---------|
 |--------------7---7\9--9--9--9--9--9--9-----9--9--9--9--9--9--9--9----------|

 


 


 


 "So all good things should..."


 [guitar 1 - beavy distortion] 


 

 
 |----------------------------------|------------------------|
 |----------------------------------|------------------------|
 |--1---1\5---5\10---10\8-8-8-8-8---|---1--------------------|
 |--2---2\6---6\11---11\9-9-9-9-9---|---2--------------------|
 |--2---2\6---6\11---11\9-9-9-9-9---|---2--------------------|
 |--0---0\4---4\9-----9\7-7-7-7-7---|---0--------------------|

 


 |


 [guitar 2 - beavy distortion] 


 

 
 |----------------------------------|------------------------|
 |----------------------------------|------------------------|
 |--1---1\5---5\10---10\8-8-8-8-8---|---1--------------------|
 |--2---2\6---6\11---11\9-9-9-9-9---|---2--------------------|
 |--2---2\6---6\11---11\9-9-9-9-9---|---2--------------------|
 |--0---0\4---4\9-----9\7-7-7-7-7---|---0--------------------|


Important: The song above is NOT stored on the Chordie server. The original song is hosted at www.guitaretab.com. Chordie works as a search engine and provides on-the-fly formatting. Chordie does not index songs against artists'/composers' will. To remove this song please click here.

This song is displayed as text-only. Transposing and tuning is only available for chordpro-songs.
Rate #1 of 7 versions

Jango Player

Login - add to songbook

SHARE PAGE  




You need to log in to post comments