Guitar Tabs, Chords and Lyrics
Update 23.10: Songbooks are teporarily down. Will be restored! Might take 24-48h! Sorry for the inconvenience!


Sun Hotel  The Menzingers

Tuning: Half-Step Down
Hey all. This was posted in the wrong tuning, so I figured I'd post the right chords,
and I also threw in the lead parts at the bottom. Enjoy.
INTRO:
[A]I remember you [F#m]well at the [Bm]Sun [E]Hotel
Where we were [A]waiting im[F#m]patiently for a [Bm]decent night's [E]sleep
INTERLUDE: (w/ lead)
A F#m Bm E x2
VERSE:
It's like I've [A]landed in the rubble of my [F#m]past life
And I [Bm]never seem to board a re[E]turn flight
From the [A]shame, the fear, the guilt that's tough to [F#m]mention
The [Bm]kind that always pry your eyelids [E]open
BRIDGE: (w/ lead)
[A]And I'm pretty sure this corner of the world
Is the loneliest corner in the whole world
[F#m]  
[A]Maybe it's me or the bartender
This Budweiser or the other customers
[F#m]  
When all [G#5]eyes are [A5]glued[C#m] [B] on the [G#5]6:00 [A5] news[C#m] [B]
For [D]another fire and another [E]successful deer season
[F#m]I'll leave you alone and you will [D]leave me alone
[F#m]I'll leave you alone and you will [D]leave me a[E]lone
[F#m]I'll leave you alone and you will [D]leave me alone
[F#m]I'll leave you alone and you will [D]leave me a[E]lone
CHORUS:
[A]I remember you [F#m]well at the [Bm]Sun [E]Hotel
Where we were [A]waiting im[F#m]patiently for a [Bm]decent night's [E]sleep
[A]I remember you [F#m]well at the [Bm]Sun [E]Hotel
Where we were [A]running out of [F#m]money where we were [Bm]grinding down our [E]teeth
OUTRO: (w/ lead)
A F#m Bm E x4
INTRO LEAD:
[A] [F#m]  
 
 eb|------------------------------------------------------------------|
 Bb|------------------------------------------------------------------|
 Gb|-2-4-6-6-6-6-6-6-6-6-6-6-6-6-4-4-4-4-6-4-2-2-2-2-2-2-2-2-2-2-2-4--|
 Db|-x-x-x-x-x-x-x-x-x-x-x-x-x-x-x-x-x-x-x-x-x-x-x-x-x-x-x-x-x-x-x-x--|
 Ab|-0-2-4-4-4-4-4-4-4-4-4-4-4-4-2-2-2-2-4-2-0-0-0-0-0-0-0-0-0-0-0-2--|
 Eb|------------------------------------------------------------------|

[Bm] [E]  
 
 eb|------------------------------------------------------------------|
 Bb|------------------------------------------------------------------|
 Gb|-7-7-7-7-7-7-7-7-7-7-7-7-9-9-9-9-6-6-6-6-6-6-7-6-4-4-4-4-4-4-2-4--|
 Db|-x-x-x-x-x-x-x-x-x-x-x-x-x-x-x-x-x-x-x-x-x-x-x-x-x-x-x-x-x-x-x-x--|
 Ab|-5-5-5-5-5-5-5-5-5-5-5-5-7-7-7-7-4-4-4-4-4-4-5-4-2-2-2-2-2-2-0-2--|
 Eb|------------------------------------------------------------------|

[A] [F#m]  
 
 eb|------------------------------------------------------------------|
 Bb|------------------------------------------------------------------|
 Gb|-6-6-6-6-6-6-6-6-6-6-6-6-9-9-9-9-1111111-6-6-6-6-4-4-4-4-2-2-2-2--|
 Db|-x-x-x-x-x-x-x-x-x-x-x-x-x-x-x-x-x-x-x-x-x-x-x-x-x-x-x-x-x-x-x-x--|
 Ab|-4-4-4-4-4-4-4-4-4-4-4-4-7-7-7-7-9-9-9-9-4-4-4-4-2-2-2-2-0-0-0-0--|
 Eb|------------------------------------------------------------------|

[Bm] [E]  
 
 eb|------------------------------------------------------------------|
 Bb|------------------------------------------------------------------|
 Gb|-7-7-7-7-7-7-7-7-7-7-7-7-9-9-9-9-6-6-6-6-6-6-7-6-4-4-4-4-4-4-4-4--|
 Db|-x-x-x-x-x-x-x-x-x-x-x-x-x-x-x-x-x-x-x-x-x-x-x-x-x-x-x-x-x-x-x-x--|
 Ab|-5-5-5-5-5-5-5-5-5-5-5-5-7-7-7-7-4-4-4-4-4-4-5-4-2-2-2-2-2-2-2-2--|
 Eb|------------------------------------------------------------------|

BRIDGE LEAD:
[F#m] [A]  
 
 eb|-------------------------------0---------------------------------|
 Bb|-----2---3h2---2-----2---3h2---------2-----2---2-----2-----2-----|
 Gb|---------------------------------2-2---2-2---2---2-2---2-2---2-2-|
 Db|-4-4---4-----4---4-4---4-----4-----------------------------------|
 Ab|-----------------------------------------------------------------|
 Eb|-----------------------------------------------------------------|

pm. . . . . . . . . . . . . . . . . .

Important: The song above is NOT stored on the Chordie server. The original song is hosted at www.guitaretab.com. Chordie works as a search engine and provides on-the-fly formatting. Chordie does not index songs against artists'/composers' will. To remove this song please click here.

Text color:
Chord color:
Chord grids: 
Font size:    
Page size: 

A A5 B Bm C#m D E F#m G#5
Rate #1 of 5 versions

Jango Player

Login - add to songbook

SHARE PAGE  



You need to log in to post comments