Guitar Tabs, Chords and Lyrics
Server problems seems to be fixed. Chordie has been experiencing problems with songs disappearing. These issues now seems to be fixed, but still verifying the fix. If you find anything strange, please email admin@chordie.com.


Dancin' With Manson  Therapy?

Date: Thu, 9 Apr 1998 01:21:02 +0100 (BST)
Subject: Dancin' With Manson
Dancin' With Manson by Therapy?
This is on the Babyteeth album and the Caucasian Psychosis compilation
album.
 
 ------------------------------------------------------------------------------

OK, here's a poor transcription. God knows what the guitar is doing
most of the time in this, but if you want to strum along with some
chords, these might be the ones to use. But then again, they might not.
Oh, and the lyrics are totally wrong too :-)
 
 E|----------------|----------------|----------------|----------------|
 B|----------------|----------------|----------------|----------------|
 G|----------------|----------------|----------------|----------------|
 D|----------------|----------------|----------------|----------------|
 A|0-0-0-0-0-0-0-0-|2-2-2-2-2-2-2-2-|3-3-3-3-3-3-3-3-|5-5-5-5-5-5-5-5-|
 E|----------------|----------------|----------------|----------------|

[A5] [A5] [F5] [C5]  
 
 E|----------------|----------------|----------------|----------------|
 B|----------------|----------------|----------------|----------------|
 G|2-2-2-2-2-2-2-2-|4-4-4-4-4-4-4-4-|5-5-5-5-5-5-5-5-|7-7-7-7-7-7-7-7-|
 D|2-2-2-2-2-2-2-2-|4-4-4-4-4-4-4-4-|5-5-5-5-5-5-5-5-|7-7-7-7-7-7-7-7-|
 A|0-0-0-0-0-0-0-0-|2-2-2-2-2-2-2-2-|3-3-3-3-3-3-3-3-|5-5-5-5-5-5-5-5-|
 E|----------------|----------------|----------------|----------------|

[A5] [A5] [F5] [C5]  
 
 E|----------------|----------------|----------------|----------------|
 B|----------------|----------------|----------------|----------------|
 G|2-2-2-2-2-2-2-2-|4-4-4-4-4-4-4-4-|5-5-5-5-5-5-5-5-|7-7-7-7-7-7-7-7-| x2
 D|2-2-2-2-2-2-2-2-|4-4-4-4-4-4-4-4-|5-5-5-5-5-5-5-5-|7-7-7-7-7-7-7-7-|
 A|0-0-0-0-0-0-0-0-|2-2-2-2-2-2-2-2-|3-3-3-3-3-3-3-3-|5-5-5-5-5-5-5-5-|
 E|----------------|----------------|----------------|----------------|

Take the knife on up the
hill,
lover And kiss the girl goodbye
[On top of the bass playing A A F C, the guitar starts on 10 on the B string,
but then does some funky stuff.]
[A]Venus is [F]dancing down your [C]dress
[A]And her eyes, now [F]means to me even [C]less
[A]And her hair, the [F]knot that he pulled it [C]tight
[A]It's only the [F]knot that he pulled it [C]tight
[F]Got get him [C]out of your system, [G]leave now, he'll follow, leave now,
he'll follow
[F]Get him [C]out of your system, [G]leave now, he'll follow, leave now, he'll follow
[Back to tbe 10 on tbe B over tbe bass's A A F C] 
[A]The one thing I've [F]looked for all my [C]life
[A]Is killing [F]everything I ever [C]want
[A]Trust me, [F]to give my firstborn[C] up
[A]I love him, he's [F]all I ever [C]want
[F]Got to get him [C]out of your system, [G]leave now, he'll follow, leave now,
he'll follow
[F]Get him [C]out of your system, [G]leave now, he'll follow, leave now, he'll follow
[F]Get him [C]out of your system, [G]leave now, he'll follow, leave now, he'll follow
[F]Got to get him [C]out of your system, [G]leave now, he'll follow, leave now,
he'll follow
[Muck around on A5 now.] 
A C G F x2
[A] [C]I don't care, [G]take me out of [F]here
[A] [C]I don't care, [G]take me out of [F]here
[A]Got to get him out of my system, ([C]I don't care) [G]take me out of [F]here
[A]Got to get him out of my system, ([C]I don't care) [G]take me out of [F]here
[A]Get him out, get him out, ([C]I don't care, [G]take me out of [F]here), get him out,
just get him out
[A]Get him out, get him out, ([C]I don't care, [G]take me out of [F]here), get him out,
just get him out
[A]No, he can't get him [C]out, no, [G]never get him [F]out
[A]Get him out, just get him [C]out, no, you'll [G]never get him [F]out
[Bass goes back to A F C x2] 
[Bass continues doing A F C and guitar does stuff over tbe top x4.] 
[] 
[Finally an A.] 
Wow, wasn't that a poor transcription. :-)

Important: The song above is NOT stored on the Chordie server. The original song is hosted at www.guitaretab.com. Chordie works as a search engine and provides on-the-fly formatting. Chordie does not index songs against artists'/composers' will. To remove this song please click here.

Text color:
Chord color:
Chord grids: 
Font size:    
Page size: 

A A5 C C5 F F5 G
Rate #1 of 4 versions

Login - add to songbook

SHARE PAGE  




You need to log in to post comments