Guitar Tabs, Chords and Lyrics
Major upgrade!! After one year development the new version of Chordie is now online! Please give feedback.


Turn   Therapy?

 
 e|------------------------------------------------------------|
 B|-----12-------12--------13--------13--------15--------15----|
 G|---11--11---11--11----12--12----12--12----14--14----14--15--|
 D|--9--------9--------10--------10--------12--------12--------|
 A|------------------------------------------------------------|
 E|------------------------------------------------------------|

 


 


 "i know where you live..."


 

 
 e|-----------------------------------|
 B|--12--12--12--12---13--13--15--15--|
 G|--11--11--11--11---12--12--14--14--|
 D|--9---9---9---9----10--10--12--12--|
 A|-----------------------------------|
 E|-----------------------------------|

 


 


 "you turn..."


 

 
 e|-----------|
 B|-----------|
 G|--4--5--7--|
 D|--4--5--7--|
 A|--2--3--5--|
 E|-----------|

 


 


 bridge


 

 
 e|--------------------------------------|
 B|--------------------------------------|
 G|--9-9-9-9--8-8-8-8--5-5-5-5--4-4-4-4--|
 D|--9-9-9-9--8-8-8-8--5-5-5-5--4-4-4-4--|
 A|--7-7-7-7--6-6-6-6--3-3-3-3--2-2-2-2--|
 E|--------------------------------------|


Important: The song above is NOT stored on the Chordie server. The original song is hosted at www.guitaretab.com. Chordie works as a search engine and provides on-the-fly formatting. Chordie does not index songs against artists'/composers' will. To remove this song please click here.

This song is displayed as text-only. Transposing and tuning is only available for chordpro-songs.
Rate #1 of 3 versions

Jango Player

Login - add to songbook

SHARE PAGE  



You need to log in to post comments