Guitar Tabs, Chords and Lyrics
Server problems seems to be fixed. Chordie has been experiencing problems with songs disappearing. These issues now seems to be fixed, but still verifying the fix. If you find anything strange, please email admin@chordie.com.


It Goes Like This  Thomas Rhett

Thomas Rhett - It Goes Like This
Intro
 
 e|-----------------------------------------------------------------------------------------------|
 B|-------------------8-----6s8s6s4------------------8-----6s8s4----------------------------------|
 G|------7s9s7----------------------------7s9s7---------------------------------------------------|
 D|-----------------------------------------------------------------------------------------------|
 A|-----------------------------------------------------------------------------------------------|
 E|-----------------------------------------------------------------------------------------------|

Verse 1
 
 e|----------------------------------------------------------------|
 B|---------------7---------------------------------7--------------|
 G|-------4----------4-----4---------------4----------4-----4------| x8 over verse 1
 D|---6------6----------6--------------6------6----------6---------|
 A|----------------------------------------------------------------|
 E|----------------------------------------------------------------|

Hey girl, you make me wanna write a song,
Sit you down, I'll sing it to you all night long,
I've had a melody in my head since she walked in here and knocked me dead.
Yea girl, you make me wanna write a song
And it goes li[G#m]ke ooh,[E] what I wouldn�[B]39;t[F#] do
To write my [G#m]name on your heart, g[E]et you wrapped in my arms baby a[B]ll around y[F#]ou.
And it goes lik[G#m]e hey,[E] girl I'm bl[B]own a[F#]way,
Yea it [G#m]starts with a smile and it [E]ends with an all night l[B]ong slow k[F#]iss,
Yea it goes li[G#m]ke this.[E] [G#m] [E]
[G#m]Hey girl, you [E]make me wanna drive you [G#m]home,[E]
[G#m]Get you outta h[E]ere and get you all alon[G#m]e.[E]
[G#m]I don't know what it[E] is about you, baby, but[G#m] I'm all messed up[E] and it might sound crazy,
[G#m]But you make m[E]e wanna write a song.[G#m] [E]
And it goes lik[G#m]e ooh, [E]what I wouldn[B]9;t [F#]do
To write my n[G#m]ame on your heart, g[E]et wrapped in my arms baby a[B]ll around you.[F#]
And it goes lik[G#m]e hey,[E] girl I'm bl[B]own a[F#]way,
Yea it st[G#m]arts with a smile and it [E]ends with an all night l[B]ong slow k[F#]iss,
Yea it goes [G#m]like this.[E] [G#m] [E]
Solo:
 
 e|-----------------------------------------------------------------------------------------------|
 B|-----------------------------------------------------------------------------------------------|
 G|-----------------------------------------------------------------------------------------------|
 D|-----8-9-11bā??11-9-8-----------8-9-11b-11-9-8---------------------------------------------------|
 A|---------------------10b-----------------------14b---14---12---14------------------------------|
 E|-----------------------------------------------------------------------------------------------|

[E]Looking at you looking at me[F#] that way,
E F# (once w/ vibrato)
Makes me wanna grab my old guitar and play
(soft first line) G#m E B F#
Something like ooh, what I wouldn't do,
To write my [G#m]name on my heart, ge[E]t you wrapped in my arms baby a[B]ll around you.[F#]
And it goes like hey,[G#m] girl I[E]'m blown aw[B]ay,[F#]
Yea it [G#m]starts with a smile and it e[E]nds with an all night l[B]ong slow kis[F#]s,
Yea it goes like this[G#m] [E] [G#m] [E]
And it goes lik[G#m]e ooh,[E] and it goes like[G#m] hey,[E]
And it ends with [G#m]a kiss[E],
Yea it goes li[G#m]ke thi[E]s.

Important: The song above is NOT stored on the Chordie server. The original song is hosted at www.guitaretab.com. Chordie works as a search engine and provides on-the-fly formatting. Chordie does not index songs against artists'/composers' will. To remove this song please click here.

Text color:
Chord color:
Chord grids: 
Font size:    
Page size: 

B E F# G#m
Rate #1 of 6 versions

Login - add to songbook

SHARE PAGE  



You need to log in to post comments