Guitar Tabs, Chords and Lyrics
Major upgrade!! After one year development the new version of Chordie is now online! Please give feedback.


Living for Today  Thunder

For the intro and verse play something like this:
[A] [Dsus2] [A]  
 
 e----------------0-0-----------------/------------------------
 H------------2---3-3-------2---------/-------------------------
 G------------2---2-2-------2-- play 4x before the 1st verse begin --
 D------------2---0-0-------2-------/--------------------------
 A---0--3^0-----------3^0----0-0---/---------------------------
 E--------------------------------/----------------------

Or you can also play smt. Like this:
 
 e------------------------------------------
 H----------2------2------2-----------------
 G----------2------2------2-----------------
 D----------2------2------2-----------------
 A--0?-3^0-----^5-----3^0-------------------
 E------------------------------------------

Verse:
[A]Looking down fr[D]om the mo[A]untains and ou[A]t to [D]the sea[A]
[A]You?re aware [D]in a m[A]oment, you?re n[A]othing [D]in the s[A]cheme
Chorus:
But your [G]vanity to[D]ld you, you?re [A]more than a [D]dot
And your a[G]rrogance [D]keeps you, from [A]thinking that you?r[D]e not
So [G]when it h[D]its you, you?re[A] fading a[D]way
G D A D A D A D A?
Cos you won?t live forever, start living for today.
Verse: the same chords:ADA
And the seasons are changing, faster all the time
Every day seems to pass by in the wink of an eye
Chorus: the same chords:GDAD
Old man on the corner, laughing like a child
Clinging to a bottle, his broken eyes wild
Kept on a laughing, the people turned away
But he knows something we don?t, he?s living for today
Verse:
So you crawl through your lifetime, a slave to the grind
But time overtook you, and left you far behind
Chorus:
So don?t bother running, the moment is gone
Eats you like a cancer, but still you struggle on
Why try to fight it, you?re dying anyway?
The future doesn?t matter when you?re living for today
C A D A A D A : guitar 1
 
 E--------------------------------------------------------------
 H------0/1~~1/3~~3/5~~5/7~~---131------------131---------------
 G----------------------------------020------------020----------
 D--------------------------------------303------------303------
 A------------------------------------------3^0------------3^0--

E--~~~ I?m not sure with this part, try something like this ~~~
C C D E : guitar 1
 
 E--------------------------------------------------
 H--0/1~~1/3~~3/5~~5/7~~--1/3~~3/5~~/5~~-: guitar 2-
 G--------------------------------------------------

C ADADA?
C ADADA?
Are you living for today?
Verse:
Looking down from the mountains and out to the sea
You?re aware in a moment, you?re nothing in the scheme
Chorus:
But your vanity told you, you?re more than a dot
And your arrogance keeps you, from thinking that you?re not
So when it hits you, you?re fading away
Cos you won?t live forever, start living for today.
A D A A D A?
you?re fading away
A D A A D A?
you?re fading away
A D A A D A?
start living for today
A D A A D A?
start living for today.
"I'm sorry I don't hate the world,
I'm afraid that I'm not disturbed,
I'm sorry that I don't do drugs,
I hope you understand..."
Just try to live for today and don't hurt anybody...
e-mail: tttommy@zoznam.sk :-)

Important: The song above is NOT stored on the Chordie server. The original song is hosted at www.guitaretab.com. Chordie works as a search engine and provides on-the-fly formatting. Chordie does not index songs against artists'/composers' will. To remove this song please click here.

Text color:
Chord color:
Chord grids: 
Font size:    
Page size: 

A D Dsus2 G
Rate #1 of 3 versions

Login - add to songbook

SHARE PAGE  




You need to log in to post comments