Guitar Tabs, Chords and Lyrics
Major upgrade!! After one year development the new version of Chordie is now online! Please give feedback.


World Circus  Toxik

originally tabbed by metalthrashingm
Gtr I (E A D G B E) - 'Josh Rhythm I'
Gtr II (E A D G B E) - 'Josh Rhythm II'
Gtr III (E A D G B E) - 'Josh Lead I'
Gtr IV (E A D G B E) - 'Josh Lead II'
Effects Intro - 0:00 - 0:31
Q=205
[4/4] Gtrs I, II
|-----||
|-----||
|-----||
|-----||
|-----||
|-----||
Intro
[C5] \0.5/ \0.5/ \0.5/ \0.5/ \0.5/
 
 |----------------|---------------------------------|
 |----------------|---------------------------------|
 |-5----(5)-------|-(5)-----(5)-----(5)-----(5)-----|
 |-5----(5)-------|-(5)-----(5)-----(5)-----(5)-----|
 |-3----(3)-------|-(3)-----(3)-----(3)-----(3)-----|
 |----------------|---------------------------------|

N.C.
 
 ||----------------------|---------------------|
 ||o---------------------|---------------------|
 ||----------------------|---------------------|
 ||--7-6-5h6p5p4---------|---------------------|
 ||o-------------8-7-6-7-|-8-7-6h7p6p5---------|
 ||----------------------|-------------9-8-7-8-|

1.
 
 PM------------------------|
 |-----------------------------|------------------||
 |-----------------------------|-----------------o||
 |-----------------------------|------------------||
 |-----------------------------|---3---4---5---6--||
 |-----------------------------|-2---3---4---5---o||
 |-9-8-8-7-7-8-8-9-8-8-7-7-8-8-|------------------||

2.
 
 PM----------------------------|
 |---------------------------------|-----------------|
 |---------------------------------|-----------------|
 |---------------------------------|-----------------|
 |---------------------------------|---3---4---5---6-|
 |---------------------------------|-2---3---4---5---|
 |-9-9-8-8-7-7-8-8-9-9-8-8-7-7-8-8-|-----------------|

Q=240
A5 N.C.
\0.5/ \0.5/ \0.5/
 
 |----------------------------|-----------------------|
 |----------------------------|-----------------------|
 |-9--(9)-----(9)-----(9)-----|-----------------------|
 |-7--(7)-----(7)-----(7)-----|-----------------------|
 |-0--(0)-----(0)-----(0)-----|-8-7-5-7-5---5---------|
 |----------------------------|-----------8---8-7-8\--|

C N.C.C N.C.C N.C. C N.C.C N.C.C N.C.F5
 
 |-------------------------|-----------------------|
 |-------------------------|-----------------------|
 |-------------------------|-----------------------|
 |-7-7-7-8-7-7-8-7-7-8-7-7-|-8-7-7-8-7-7-8-7-7-10--|
 |-0-0-0-0-0-0-0-0-0-0-0-0-|-0-0-0-0-0-0-0-0-0--8--|
 |-------------------------|-----------------------|

N.C. F5 N.C. F5 N.C. F5 N.C. F5
 
 |---------------------|----------------------|
 |---------------------|----------------------|
 |---------------------|----------------------|
 |-------10--------10--|-------10--------10---|
 |-0-0-0--8--0-0-0--8--|-0-0-0--8--0-0-0--8---|
 |---------------------|----------------------|

N.C. C N.C.C N.C.C N.C. C N.C.C N.C.C N.C.G5
 
 |-------------------------|-----------------------|
 |-------------------------|-----------------------|
 |-------------------------|-------------------12--|
 |-7-7-7-8-7-7-8-7-7-8-7-7-|-8-7-7-8-7-7-8-7-7-10--|
 |-0-0-0-0-0-0-0-0-0-0-0-0-|-0-0-0-0-0-0-0-0-0--8--|
 |-------------------------|-----------------------|

N.C. G5 N.C. G5 N.C. G5 N.C. G5
 
 |---------------------|----------------------|
 |---------------------|----------------------|
 |-------12--------12--|-------12--------12---|
 |-------10--------10--|-------10--------10---|
 |-0-0-0--8--0-0-0--8--|-0-0-0--8--0-0-0--8---|
 |---------------------|----------------------|

A5 N.C.
[4/4] \0.5/ \0.5/ \0.5/
 
 |----------------------------|-------------------------||
 |----------------------------|-------------------------||
 |-9--(9)-----(9)-----(9)-----|-------------------------||
 |-7--(7)-----(7)-----(7)-----|-------------------------||
 |-0--(0)-----(0)-----(0)-----|-8-7-5-7-5---5-----------||
 |----------------------------|-----------8---8-7-8-7-5-||

Verse - 0:56
[Eb5] [D] [C5]  
 
 |-------------|-------------|--------------------|-------------|
 |-------------|-------------|-----------------|-------------|
 |-------------|-----9-----7-|----8------------|-8----7--5\--|
 |-----5-----5-|---5-----7---|-/7---6----------|-8----4--5\--|
 |---7-----7---|-7-----7-----|--------------------|-6----5--3\--|
 |-5-----6-----|-------------|--------------------|-------------|

A5 N.C. A5 N.C. A N.C. G# N.C. B N.C. B N.C. Eb5 D
 
 |-------------------|-------------------|-------------------|-------------|
 |-------------------|-------------------|-------------------|-------------|
 |-------------------|-6--------5--------|-8--------8--------|-8-8---7-7---|
 |-2--------2--------|-7--------6--------|-9--------9--------|-8-8---4-4---|
 |-0--0-0-0-0--0-0-0-|----0-0-0----0-0-0-|----0-0-0----0-0-0-|-6-6---5-5---|
 |-------------------|-------------------|-------------------|-------------|

N.C. Eb5 D C5
 
 |-------------|-------------|----------------|-------------|
 |-------------|-------------|--------8-[7]---|-------------|
 |-------------|-----9-----7-|----8-----------|-8----7--5\--|
 |-----5-----5-|---5-----7---|-/7---6---------|-8----4--5\--|
 |---7-----7---|-7-----7-----|--------------0-|-6----5--3\--|
 |-5-----6-----|-------------|----------------|-------------|

A5 N.C. A5 N.C. A N.C. G# N.C. B N.C. B N.C. Eb5 D
 
 |-------------------|-------------------|-------------------|-------------||
 |-------------------|-------------------|-------------------|-------------||
 |-------------------|-6--------5--------|-8--------8--------|-8-8---7-7---||
 |-2--------2--------|-7--------6--------|-9--------9--------|-8-8---4-4---||
 |-0--0-0-0-0--0-0-0-|----0-0-0----0-0-0-|----0-0-0----0-0-0-|-6-6---5-5---||
 |-------------------|-------------------|-------------------|-------------||

Pre-Chorus - 1:13
G#5N.C. G#5N.C. E/CN.C. E/CN.C. G#5N.C. G#5N.C. A5 B5
 
 PM--| PM--| PM--| PM--| PM--| PM--|
 ||--------------------|-------------------|-------------------|---------------||
 ||o-------------------|-------------------|-------------------|--------------o||
 ||--8--------8--------|-9--------9--------|-8--------8--------|---------------||
 ||--6--------6--------|-6--------6--------|-6--------6--------|-7----7--9-----||
 ||o-4--4-4-4-4--4-4-4-|-4--4-4-4-4--4-4-4-|-4--4-4-4-4--4-4-4-|-7----7--9----o||
 ||--------------------|-------------------|-------------------|-5----5--7-----||

Chorus - 1:22
F#5 E5 F#5F#5A5#B5 C5 N.C.
 
 ||------------|-------------|------------|---------------------------||
 ||o-----------|-------------|------------|--------------------------o||
 ||------------|-------------|------------|---------------------------||
 ||--4---------|----4--2--4--|-5----------|---------------------------||
 ||o-4------2--|-4--4--0--2--|-3----3--3--|-3p2p0-3p2p0-3p2p0-3p2p0--o||
 ||--2------0--|-2-----------|------------|---------------------------||

Verse - 1:30
C N.C.C N.C.C N.C. C N.C.C N.C.C N.C.F5
 
 |-------------------------|-----------------------|
 |-------------------------|-----------------------|
 |-------------------------|-----------------------|
 |-7-7-7-8-7-7-8-7-7-8-7-7-|-8-7-7-8-7-7-8-7-7-10--|
 |-0-0-0-0-0-0-0-0-0-0-0-0-|-0-0-0-0-0-0-0-0-0--8--|
 |-------------------------|-----------------------|

N.C. F5 N.C. F5 N.C. F5 N.C. F5
 
 |---------------------|----------------------|
 |---------------------|----------------------|
 |---------------------|----------------------|
 |-------10--------10--|-------10--------10---|
 |-0-0-0--8--0-0-0--8--|-0-0-0--8--0-0-0--8---|
 |---------------------|----------------------|

N.C. C N.C.C N.C.C N.C. C N.C.C N.C.C N.C.G5
 
 |-------------------------|-----------------------|
 |-------------------------|-----------------------|
 |-------------------------|-------------------12--|
 |-7-7-7-8-7-7-8-7-7-8-7-7-|-8-7-7-8-7-7-8-7-7-10--|
 |-0-0-0-0-0-0-0-0-0-0-0-0-|-0-0-0-0-0-0-0-0-0--8--|
 |-------------------------|-----------------------|

N.C. G5 N.C. G5 N.C. G5 N.C. G5
 
 |---------------------|----------------------|
 |---------------------|----------------------|
 |-------12--------12--|-------12--------12---|
 |-------10--------10--|-------10--------10---|
 |-0-0-0--8--0-0-0--8--|-0-0-0--8--0-0-0--8---|
 |---------------------|----------------------|

A5 N.C.
[4/4] \0.5/ \0.5/ \0.5/
 
 |----------------------------|-------------------------||
 |----------------------------|-------------------------||
 |-9--(9)-----(9)-----(9)-----|-------------------------||
 |-7--(7)-----(7)-----(7)-----|-------------------------||
 |-0--(0)-----(0)-----(0)-----|-8-7-5-7-5---5-----------||
 |----------------------------|-----------8---8-7-8-7-5-||

Verse - 1:41
[Eb5] [D] [C5]  
 
 |-------------|-------------|--------------------|-------------|
 |-------------|-------------|-----------------|-------------|
 |-------------|-----9-----7-|----8------------|-8----7--5\--|
 |-----5-----5-|---5-----7---|-/7---6----------|-8----4--5\--|
 |---7-----7---|-7-----7-----|--------------------|-6----5--3\--|
 |-5-----6-----|-------------|--------------------|-------------|

A5 N.C. A5 N.C. A N.C. G# N.C. B N.C. B N.C. Eb5 D
 
 |-------------------|-------------------|-------------------|-------------|
 |-------------------|-------------------|-------------------|-------------|
 |-------------------|-6--------5--------|-8--------8--------|-8-8---7-7---|
 |-2--------2--------|-7--------6--------|-9--------9--------|-8-8---4-4---|
 |-0--0-0-0-0--0-0-0-|----0-0-0----0-0-0-|----0-0-0----0-0-0-|-6-6---5-5---|
 |-------------------|-------------------|-------------------|-------------|

N.C.
Gtr I
~~~~~~
 
 |-------------|---------------|---------------------|-/15-------|
 |-------------|---------------|---------------------|-----------|
 |-------------|-----[9]-----7-|----8----------------|-----------|
 |-----5-----5-|---5-------7---|-/7---6-----------|-----------|
 |---7-----7---|-7-------7-----|---------------|-----------|
 |-5-----6-----|---------------|---------------------|-----------|

|
| Gtr II
 
 |-------------|---------------|---------------------|-----------|
 |-------------|---------------|---------------------|-----------|
 |-------------|------9------7-|----8----------------|-----------|
 |-----5-----5-|---5-------7---|-/7---6--0-----------|--(0)b5----|
 |---7-----7---|-7-------7-----|---------------------|-----------|
 |-5-----6-----|---------------|---------------------|-----------|

A5 N.C. A5 N.C. A N.C. G# N.C. B N.C. B N.C. Eb5 D
Gtrs I, II
 
 |-------------------|-------------------|-------------------|-------------||
 |-------------------|-------------------|-------------------|-------------||
 |-------------------|-6--------5--------|-8--------8--------|-8-8---7-7---||
 |-2--------2--------|-7--------6--------|-9--------9--------|-8-8---4-4---||
 |-0--0-0-0-0--0-0-0-|----0-0-0----0-0-0-|----0-0-0----0-0-0-|-6-6---5-5---||
 |-------------------|-------------------|-------------------|-------------||

Pre-Chorus - 1:58
G#5N.C. G#5N.C. E/CN.C. E/CN.C. G#5N.C. G#5N.C. A5 B5
 
 PM--| PM--| PM--| PM--| PM--| PM--|
 ||--------------------|-------------------|-------------------|---------------||
 ||o-------------------|-------------------|-------------------|--------------o||
 ||--8--------8--------|-9--------9--------|-8--------8--------|---------------||
 ||--6--------6--------|-6--------6--------|-6--------6--------|-7----7--9-----||
 ||o-4--4-4-4-4--4-4-4-|-4--4-4-4-4--4-4-4-|-4--4-4-4-4--4-4-4-|-7----7--9----o||
 ||--------------------|-------------------|-------------------|-5----5--7-----||

Pre-Chorus - 2:06
F#5 E5 F#5F#5A5#B5 C5 N.C.
 
 |-----------|-------------|------------|-------------------------|
 |-----------|-------------|------------|-------------------------|
 |-----------|-------------|------------|-------------------------|
 |-4---------|----4--2--4--|-5----------|-------------------------|
 |-4------2--|-4--4--0--2--|-3----3--3--|-3p2p0-3p2p0-3p2p0-3p2p0-|
 |-2------0--|-2-----------|------------|-------------------------|
 |-----------|-------------|------------|------------------||
 |-----------|-------------|------------|------------------||
 |-----------|-------------|------------|------------------||
 |-4---------|----4--2--4--|-5----------|------------------||
 |-4------2--|-4--4--0--2--|-3----3--3--|-3p2p0-3p2p0-3----||
 |-2------0--|-2-----------|------------|------------------||

Breakdown - 2:15
BbB5N.C.B5BbN.C. B5C5N.C.C5B5N.C. BbB5N.C.B5BbN.C.
PM| PM| PM| PM| PM| PM|
 
 ||------------------|-----------------|-----------------|
 ||o-----------------|-----------------|-----------------|
 ||------------------|-----------------|-----------------|
 ||--3S4-----4S3-----|-4S5-----5S4-----|-3S4-----4S3-----|
 ||o-1S2-2-2-2S1-1-1-|-2S3-3-3-3S2-2-2-|-1S2-2-2-2S1-1-1-|
 ||------------------|-----------------|-----------------|

1. 2.
F5 N.C.F5 F5 N.F5 N.F5 N.C.
PM| PM| PM PM
 
 |----------------||--------------|--------------|
 |---------------o||--------------|--------------|
 |----------------||--------------|-------[5]----|
 |-----3------3---||-3----3----3--|--------------|
 |-----3------3--o||-3----3----3--|--------------|
 |-1-1-1--1-1-1---||-1--0-1--0-1--|-0h1----------|

BbB5N.C.B5BbN.C. B5C5N.C.C5B5N.C. BbB5N.C.B5BbN.C.
PM| PM| PM| PM| PM| PM|
 
 ||------------------|-----------------|-----------------|
 ||o-----------------|-----------------|-----------------|
 ||------------------|-----------------|-----------------|
 ||--3S4-----4S3-----|-4S5-----5S4-----|-3S4-----4S3-----|
 ||o-1S2-2-2-2S1-1-1-|-2S3-3-3-3S2-2-2-|-1S2-2-2-2S1-1-1-|
 ||------------------|-----------------|-----------------|

1. 2.
F5 N.C.F5 F5 N.F5 N.F5 N.C.
PM| PM| PM PM ~
 
 |----------------||--------------|------------|
 |---------------o||--------------|------------|
 |----------------||--------------|-------5----|
 |-----3------3---||-3----3----3--|------------|
 |-----3------3--o||-3----3----3--|------------|
 |-1-1-1--1-1-1---||-1--0-1--0-1--|-0h1--------|

BbB5N.C.B5BbN.C. B5C5N.C.C5B5N.C. BbB5N.C.B5BbN.C.
PM| PM| PM| PM| PM| PM|
 
 ||------------------|-----------------|-----------------|
 ||o-----------------|-----------------|-----------------|
 ||------------------|-----------------|-----------------|
 ||--3S4-----4S3-----|-4S5-----5S4-----|-3S4-----4S3-----|
 ||o-1S2-2-2-2S1-1-1-|-2S3-3-3-3S2-2-2-|-1S2-2-2-2S1-1-1-|
 ||------------------|-----------------|-----------------|

Solo I - 2:39
1. 2.
F5 N.C.F5 F5 N.F5 N.F5 N.C. G5 G5
Gtrs III, IV
 
 |----------------||------------------|---------------|
 |---------------o||-17b20------------|-(17)----------|
 |----------------||------------------|---------------|
 |----------------||------------------|---------------|
 |---------------o||------------------|---------------|
 |----------------||------------------|---------------|

|
| Gtrs I, II
| PM| PM| PM PM ~
 
 |----------------||------------------|---------------|
 |---------------o||------------------|---------------|
 |----------------||------------------|--------5--5---|
 |-----3------3---||--3-------3----3--|--------5--5---|
 |-----3------3--o||--3-------3----3--|--------3--3---|
 |-1-1-1--1-1-1---||--1-----0-1--0-1--|---0h1---------|

G5 N.C. B5 N.C. A5 N.C.
\0.5/ \0.5/ \0.5/ \0.5/ \0.5/ \0.5/ \0.5/
 
 |-------------------------------|----------------------------------|
 |-20--20-------18------18-------|-17------17-------12------12------|
 |-------------------------------|----------------------------------|
 |-------------------------------|----------------------------------|
 |-------------------------------|----------------------------------|
 |-------------------------------|----------------------------------|

|
 
 | PM----| PM----| PM----| ~~~~~~
 |-------------------------------|----------------------------------|
 |-------------------------------|----------------------------------|
 |-------------------------------|----------------------------------|
 |---------------4---------------|--2-------------------------------|
 |--5------------2-------2-----2-|--0-------0-----0--3--------------|
 |--3---3-----3------------------|----------------------------------|

B5 N.C. D5 N.C. C5/G
\0.5/ \0.5/ \0.5/ \0.5/ \1
 
 |-------------------------------|---------------|
 |-8------8-------5------5-------|-8-6--5--(5)---|
 |-------------------------------|---------------|
 |-------------------------------|---------------|
 |-------------------------------|---------------|
 |-------------------------------|---------------|

|
 
 | PM----| PM----|
 |-------------------------------|---------------|
 |-------------------------------|---------------|
 |----------------2--------------|---------------|
 |-4--------------0------0-----0-|-5-5--5---5----|
 |-2------2-----2----------------|-3-3--3---3----|
 |-------------------------------|-3-3--3---3----|

G5 N.C. B5 N.C. A5 N.C.
 
 |----------------------------------|-------------------------------------|
 |----------------------------------|-------------------------------------|
 |----------------------------------|-10-----------------10---------------|
 |-----------------7------9-10---12-|----12-10-9-10---12----12-10-9-10-12-|
 |--------7-8---10---10-8-----------|-------------------------------------|
 |-7-8-10---------------------------|-------------------------------------|

|
 
 | PM--| PM---| PM---| ~~
 |----------------------------------|-------------------------------------|
 |----------------------------------|-------------------------------------|
 |----------------------------------|-------------------------------------|
 |-----------------4----------------|--2----------------------------------|
 |-5---------------2------2----2----|--0-------0----0-----3---------------|
 |-3------3---3---------------------|-------------------------------------|

B5 N.C. D5 N.C. C5/G
 
 |-24-22-20------------22S=24---|-(24)b25------------|
 |----------24-22---20----------|--------------------|
 |------------------------------|--------------------|
 |------------------------------|--------------------|
 |------------------------------|--------------------|
 |------------------------------|--------------------|

|
| PM---| PM|
 
 |------------------------------|--------------------|
 |------------------------------|--------------------|
 |----------------------2-------|--------------------|
 |--4-------------------0---0-0-|---5-----5--5--5----|
 |--2--------2----2-------------|---3-----3--3--3----|
 |------------------------------|---3-----3--3--3----|

G5 N.C. B5 N.C.
T T T T T T T T
 
 |-22p17p13-22p17p13-22p17p13-22p17p13-22p17p13-22p17p13-22p17p13-22p17p13-|
 |-------------------------------------------------------------------------|
 |-------------------------------------------------------------------------|
 |-------------------------------------------------------------------------|
 |-------------------------------------------------------------------------|
 |-------------------------------------------------------------------------|

|
 
 | PM------| PM------|
 |-------------------------------------------------------------------------|
 |-------------------------------------------------------------------------|
 |-------------------------------------------------------------------------|
 |--------------------------------------4----------------------------------|
 |--5-----------------------------------2-----------------2--------2-------|
 |--3-----------------3--------3-------------------------------------------|

A5 N.C.
T T T T T T T T
 
 |-20p15p12-20p15p12-20p15p12-20p15p12-20p15p12-20p15p12-20p15p12-20p15p12--|
 |--------------------------------------------------------------------------|
 |--------------------------------------------------------------------------|
 |--------------------------------------------------------------------------|
 |--------------------------------------------------------------------------|
 |--------------------------------------------------------------------------|

|
 
 | PM------| ~~~
 |--------------------------------------------------------------------------|
 |--------------------------------------------------------------------------|
 |--------------------------------------------------------------------------|
 |--2-----------------------------------------------------------------------|
 |--0-----------------0--------0--------3-----------------------------------|
 |--------------------------------------------------------------------------|

B5 N.C. D5 N.C.
T T T T T T T T
 
 |-------------------------------------------------------------------------|
 |-20p15p12-20p15p12-20p15p12-20p15p12-20p15p12-20p15p12-20p15p12-20p15p12-|
 |-------------------------------------------------------------------------|
 |-------------------------------------------------------------------------|
 |-------------------------------------------------------------------------|
 |-------------------------------------------------------------------------|

|
 
 | PM------| PM------|
 |-------------------------------------------------------------------------|
 |-------------------------------------------------------------------------|
 |--------------------------------------2----------------------------------|
 |--4-----------------------------------0-----------------0--------0-------|
 |--2-----------------2--------2-------------------------------------------|
 |-------------------------------------------------------------------------|

[C5/G] T T T T T T T T
 
 |--------------------------------------------------------------------------|
 |-18p13p10-18p13p10-18p13p10-18p13p10-18p13p10-18p13p10-18p13p10-18p13p10--|
 |--------------------------------------------------------------------------|
 |--------------------------------------------------------------------------|
 |--------------------------------------------------------------------------|
 |--------------------------------------------------------------------------|

|
 
 |--------------------------------------------------------------------------|
 |--------------------------------------------------------------------------|
 |--------------------------------------------------------------------------|
 |--5--------5-----------------5-----------------5--------------------------|
 |--3--------3-----------------3-----------------3--------------------------|
 |--3--------3-----------------3-----------------3--------------------------|

G5 N.C. B5 N.C.
T T T T T T T T
 
 |-----------------------------------------------------------------|
 |-17p12p8-17p12p8-17p12p8-17p12p8-15p10p6-15p10p6-15p10p6-15p10p6-|
 |-----------------------------------------------------------------|
 |-----------------------------------------------------------------|
 |-----------------------------------------------------------------|
 |-----------------------------------------------------------------|

|
 
 | PM-----| PM-----|
 |-----------------------------------------------------------------|
 |-----------------------------------------------------------------|
 |-----------------------------------------------------------------|
 |----------------------------------4------------------------------|
 |--5-------------------------------2---------------2-------2------|
 |--3---------------3-------3--------------------------------------|

A5 N.C.
T T T T T T T T
 
 |----------------------------------------------------------|
 |-13p8p5-13p8p5-13p8p5-13p8p5-12p6p3-12p6p3-12p6p3-12p6p3--|
 |----------------------------------------------------------|
 |----------------------------------------------------------|
 |----------------------------------------------------------|
 |----------------------------------------------------------|

|
| PM----| ~~~
 
 |----------------------------------------------------------|
 |----------------------------------------------------------|
 |----------------------------------------------------------|
 |--2-------------------------------------------------------|
 |--0-------------0------0------3---------------------------|
 |----------------------------------------------------------|

B5 N.C.D5 N.C. C5/G
\2.5
 
 |-5h7p5p3p0---------|------------||
 |-----------6p5p3h5-|------------||
 |-------------------|---------||
 |-------------------|------------||
 |-------------------|------------||
 |-------------------|------------||

|
| PM| PM|
 
 |-------------------|------------||
 |-------------------|------------||
 |-----------2-------|--0---------||
 |-4---------0---0-0-|--5---------||
 |-2-----2-2---------|--3---------||
 |-------------------|--3---------||

Solo I - 2:56
F5 N.C. F5 N.C. F5 N.C. G5 N.C.
Gtr III
 
 |-8p5-------5h8p5-------5h|=8p5-------5-10p7-------7-|
 |-----6---6-------6---6---|-----6---6--------8---8---|
 |-------5-----------5-----|-------5------------7-----|
 |-------------------------|--------------------------|
 |-------------------------|--------------------------|
 |-------------------------|--------------------------|

|
| Gtrs I, II
 
 | PM--| PM--| PM--| PM--|
 |-------------------------|--------------------------|
 |-------------------------|--------------------------|
 |-------------------------|--------------------------|
 |-------------------------|--------------------------|
 |-3-----------3-----------|-3------------5-----------|
 |-1-----1-1-1-1-----1-1-1-|-1-----1-1-1--3-----3-3-3-|

A5 N.C. A5 N.C. A5 N.C. B5 N.C.
 
 |-12p8---------8h12p8---------8-|-12p8---------8h13p10----------10----|
 |------10---10--------10---10---|------10---10---------12----12-------|
 |---------9--------------9------|---------9---------------12----------|
 |-------------------------------|-------------------------------------|
 |-------------------------------|-------------------------------------|
 |-------------------------------|-------------------------------------|

|
 
 | PM---| PM---| PM---| PM---|
 |-------------------------------|-------------------------------------|
 |-------------------------------|-------------------------------------|
 |-------------------------------|-------------------------------------|
 |-------------------------------|-------------------------------------|
 |--7--------------7-------------|--7--------------9-------------------|
 |--5------5--5-5--5------5--5-5-|--5------5--5-5--7--------7--7--7----|

C5 N.C. C5 N.C. C5 N.C. C5 N.C.
 
 |-15p12----------12h15p12----------12h|=15p12----------12h15p12----------12-|
 |-------13----13----------13----13----|-------13----13----------13----13----|
 |----------12----------------12-------|----------12----------------12-------|
 |-------------------------------------|-------------------------------------|
 |-------------------------------------|-------------------------------------|
 |-------------------------------------|-------------------------------------|

|
 
 | PM---| PM---| PM---| PM---|
 |-------------------------------------|-------------------------------------|
 |-------------------------------------|-------------------------------------|
 |-------------------------------------|-------------------------------------|
 |-------------------------------------|-------------------------------------|
 |-10----------------10----------------|-10----------------10----------------|
 |--8--------8--8--8--8--------8--8--8-|--8--------8--8--8--8--------8--8--8-|

Bb5 N.C. Bb5 N.C. D5 N.C. D5 N.C.
 
 |-17p13----------13h18p13----------13h|=17p13----------13h17p13----------13----|
 |-------15----15----------15----15----|-------15----15----------15----15-------|
 |----------14----------------14-------|----------14----------------14----------|
 |-------------------------------------|----------------------------------------|
 |-------------------------------------|----------------------------------------|
 |-------------------------------------|----------------------------------------|

|
 
 | PM---| PM---| PM---| PM---|
 |-------------------------------------|----------------------------------------|
 |-------------------------------------|----------------------------------------|
 |-------------------------------------|----------------------------------------|
 |-------------------------------------|--7-----------------7-------------------|
 |--8-----------------8----------------|--5--------5--5--5--5--------5--5--5----|
 |--6--------6--6--6--6--------6--6--6-|----------------------------------------|

A5 N.C. A5 N.C. C5 N.C. D5 N.C.
PM---|
 
 |-----------------------13h17p13-----|-17p13----------13-19p15----------15-|
 |----------15--------15--------------|-------15----15----------17----17----|
 |-------14--------14-----------------|----------14----------------16-------|
 |----15------------------------------|-------------------------------------|
 |-17---------------------------------|-------------------------------------|
 |------------------------------------|-------------------------------------|

|
 
 | PM--| PM-----| PM---| PM---|
 |------------------------------------|-------------------------------------|
 |------------------------------------|-------------------------------------|
 |------------------------------------|-------------------------------------|
 |------------------------------------|--5-----------------7----------------|
 |--7---------------7-----------------|--3--------3--3--3--5--------5--5--5-|
 |--5--------5-5-5--5--------5----5-5-|-------------------------------------|

F5 N.C. F5 N.C. F5 N.C. G5 N.C.
Gtr III
 
 |--8p=5-----------5h=8p=5-----------5h|==8p=5-----------5-10p=7-----------7-|
 |--------6-----6-----------6-----6----|--------6-----6-----------8-----8----|
 |-----------5-----------------5-------|-----------5-----------------7-------|
 |-------------------------------------|-------------------------------------|
 |-------------------------------------|-------------------------------------|
 |-------------------------------------|-------------------------------------|

|
| Gtr IV
 
 |-20p17----------17h20p17----------17-|-20p17----------17h22p19----------19-|
 |-------18----18----------18----18----|-------18----18----------20----18----|
 |----------17----------------17-------|----------17----------------19-------|
 |-------------------------------------|-------------------------------------|
 |-------------------------------------|-------------------------------------|
 |-------------------------------------|-------------------------------------|

|
| Gtrs I, II
 
 | PM---| PM---| PM---| PM---|
 |-------------------------------------|-------------------------------------|
 |-------------------------------------|-------------------------------------|
 |-------------------------------------|-------------------------------------|
 |-------------------------------------|-------------------------------------|
 |--3-----------------3----------------|--3-----------------5----------------|
 |--1--------1--1--1--1--------1--1--1-|--1--------1--1--1--3--------3--3--3-|

A5 N.C. A5 N.C. A5 N.C. B5 N.C.
 
 |-12p=8-----------8h12p=8-----------8-|-12p=8-----------8h13p10----------10----|
 |-------10----10----------10----10----|-------10----10----------12----12-------|
 |-----------9-----------------9-------|-----------9----------------12----------|
 |-------------------------------------|----------------------------------------|
 |-------------------------------------|----------------------------------------|
 |-------------------------------------|----------------------------------------|

|
 
 |-24p20----------20h24p20----------20-|-24p20----------20-13p10----------10----|
 |-------22----22----------22----22----|-------22----22----------12----12-------|
 |----------21----------------21-------|----------21----------------12----------|
 |-------------------------------------|----------------------------------------|
 |-------------------------------------|----------------------------------------|
 |-------------------------------------|----------------------------------------|

|
 
 | PM---| PM---| PM---| PM---|
 |-------------------------------------|----------------------------------------|
 |-------------------------------------|----------------------------------------|
 |-------------------------------------|----------------------------------------|
 |-------------------------------------|----------------------------------------|
 |--7-----------------7----------------|--7-----------------9-------------------|
 |--5--------5--5--5--5--------5--5--5-|--5--------5--5--5--7--------7--7--7----|

C5 N.C. C5 N.C. C5 N.C. C5 N.C.
 
 |-15p12----------12h15p12----------12h|=15p12----15p12h==15------------------|
 |-------13----13----------13----13----|-------13--------------13-(13)--------|
 |----------12----------------12-------|--------------------------------------|
 |-------------------------------------|--------------------------------------|
 |-------------------------------------|--------------------------------------|
 |-------------------------------------|--------------------------------------|

|
 
 |-15p12----------12h15p12----------12h|=15p12----15p12h==15------------------|
 |-------13----13----------13----13----|-------13--------------13-(13)--------|
 |----------12----------------12-------|--------------------------------------|
 |-------------------------------------|--------------------------------------|
 |-------------------------------------|--------------------------------------|
 |-------------------------------------|--------------------------------------|

|
 
 | PM---| PM---| PM--------| PM--|
 |-------------------------------------|--------------------------------------|
 |-------------------------------------|--------------------------------------|
 |-------------------------------------|--------------------------------------|
 |-------------------------------------|--------------------------------------|
 |-10----------------10----------------|-10------------------------10---------|
 |--8--------8--8--8--8--------8--8--8-|--8--------8----8----8------8---8-8-8-|

A5 N.C. A5 N.C. D5 N.C. D5 N.C.
 
 |----------14---17b18r=====14---|-15--14h15p==14-----------------|
 |-----15------------------------|------------------15------------|
 |-/16---------------------------|--------------------------16----|
 |-------------------------------|--------------------------------|
 |-------------------------------|--------------------------------|
 |-------------------------------|--------------------------------|

|
 
 |-------------------------------|--------------------------------|
 |-------------------------------|--------------------------------|
 |-------------------------------|--------------------------------|
 |-------------------------------|--------------------------------|
 |-------------------------------|--------------------------------|
 |-------------------------------|--------------------------------|

|
 
 | PM---| PM-----| PM--------| PM-----|
 |-------------------------------|--------------------------------|
 |-------------------------------|--------------------------------|
 |-------------------------------|--------------------------------|
 |-------------------------------|--7----------------7------------|
 |---7------------7--------------|--5---5----5----5--5--5-5----5--|
 |---5----5--5-5--5-----5-5----5-|--------------------------------|

A5 N.C. A5 N.C. D5 N.C. D5 N.C.
Gtr III
PM PM
 
 |-22p19-20p17-19p15-17p13-15p12h13\-----|------10h13p==10------------------|
 |---------------------------------------|---12-------------------8-10\-----|
 |---------------------------------------|---------------------10-----------|
 |---------------------------------------|-0-----------------0--------------|
 |---------------------------------------|----------------------------------|
 |---------------------------------------|----------------------------------|

|
| Gtrs I, II
 
 | PM---| PM------| PM--------| PM------|
 |---------------------------------------|----------------------------------|
 |---------------------------------------|----------------------------------|
 |---------------------------------------|----------------------------------|
 |---------------------------------------|-7-----------------7--------------|
 |--7-----------------7------------------|-5-----5----5----5-5----5-----5-5-|
 |--5--------5--5--5--5--------5-----5-5-|----------------------------------|

A5 N.C. A5 N.C. D5 N.C. D5 N.C.
 
 PM---------| PM-----------------| PM--|
 |-------------------------|----------------------------|
 |-------------------------|----------------------------|
 |-------------------------|---------------7------------|
 |---------------7---------|--------7-9-10----10-9-7----|
 |--------7-8-10----10-8-7-|-7-8-10---------------------|
 |-7-8-10------------------|----------------------------|

|
 
 | PM--| PM--| PM--| PM--|
 |-------------------------|----------------------------|
 |-------------------------|----------------------------|
 |-------------------------|----------------------------|
 |-------------------------|-7-------------7------------|
 |-7-------------7---------|-5------5-5--5-5---5-5-5----|
 |-5------5-5--5-5---5-5-5-|----------------------------|

A5 N.C. A5 D5 D5
Gtr III
 
 |-------------------------------------|-17h19p17-15----15----------------------|
 |----------------------------17-18-20-|-------------17----18----17-15----15----|
 |-------------------16-17-19----------|-------------------------------17----17-|
 |----------15-17-19-------------------|----------------------------------------|
 |-15-17-19----------------------------|----------------------------------------|
 |-------------------------------------|----------------------------------------|

|
| Gtrs I, II
| \0.5/
| PM---|
 
 |-------------------------------------|----------------------------------------|
 |-------------------------------------|----------------------------------------|
 |-------------------------------------|----------------------------------------|
 |-----------------------------7-------|--7----------------(7)------------------|
 |--7-----------------7--------5-------|--5----------------(5)------------------|
 |--5--------5--5--5--5----------------|----------------------------------------|
 |------------------------------------------------------||
 |------------------------------------------------------||
 |-16-----14-16-14--------------------------------------||
 |---------------------17-15-15-----17-15-14-----15-14--||
 |------------------------------------------------------||
 |------------------------------------------------------||

|
| \0.5/ \0.5/ \0.5/ \0.5/
 
 |------------------------------------------------------||
 |------------------------------------------------------||
 |------------------------------------------------------||
 |-(7)----------(7)----------(7)----------(7)-----------||
 |-(5)----------(5)----------(5)----------(5)-----------||
 |------------------------------------------------------||

Solo III - 3:23
Bb5 B5N.C. BbN.C. B5 C5N.C.C5B5N.C.
Gtr III
~~~~~~~~~~~~~~~~~~~~~~~~~~~
 
 |---------------------|---------------------|
 |---------------------|---------------------|
 |---------------------|---------------------|
 |---------------------|---------------------|
 |-17------------------|-(17)----------------|
 |---------------------|---------------------|

|
| Gtr IV
| \2.5
 
 |---------------------|---------------------|
 |---------------------|---------------------|
 |------------------|-()---------------|
 |------------------|-()---------------|
 |---------------------|---------------------|
 |---------------------|---------------------|

|
| Gtrs I, II
| PM| PM| PM| PM|
 
 |---------------------|---------------------|
 |---------------------|---------------------|
 |---------------------|---------------------|
 |--3S===4-----4S3-----|---4S==5-----5S4-----|
 |--1S===2-2-2-2S1-1-1-|---2S==3-3-3-3S2-2-2-|
 |---------------------|---------------------|

Bb5B5N.C.B5 BbN.C. N.C. F5 N.C. F5
 
 |----------------------|------------------------|
 |----------------------|------------------------|
 |----------------------|------------------------|
 |----------------------|------------------------|
 |----------------------|------------------------|
 |----------------------|------------------------|

|
| Gtr IV
| \1
| ~~~~~~
 
 |-------b7r======|=b8r=====b11------|
 |----------------------|------------------------|
 |----------------------|------------------------|
 |----------------------|------------------------|
 |----------------------|------------------------|
 |----------------------|------------------------|

|
 
 | PM| PM----------| PM----|
 |----------------------|------------------------|
 |----------------------|------------------------|
 |----------------------|------------------------|
 |--3S4------4S===3-----|---------3-----------3--|
 |--1S2-2-2--2S===1-1-1-|---------3-----------3--|
 |----------------------|--1----1-1---1-----1-1--|

Bb5 B5 N.C. B5 Bb5 N.C.
Gtr IV
 
 |----0-0--0-0--0-----|
 |-----------------------------------------------------|
 |-----------------------------------------------------|
 |-----------------------------------------------------|
 |-----------------------------------------------------|
 |-----------------------------------------------------|

|
| Gtrs I, II
 
 | PM--| PM-----|
 |-----------------------------------------------------|
 |-----------------------------------------------------|
 |-----------------------------------------------------|
 |--3S=====4-----------------4S===3--------------------|
 |--1S=====2------2----2-----2S===1-----1-------1------|
 |-----------------------------------------------------|

B5 C5 N.C. C5 B5 N.C.
 
 |----0-0--0-0--0-----|
 |-----------------------------------------------------|
 |-----------------------------------------------------|
 |-----------------------------------------------------|
 |-----------------------------------------------------|
 |-----------------------------------------------------|

|
 
 | PM--| PM-----|
 |-----------------------------------------------------|
 |-----------------------------------------------------|
 |-----------------------------------------------------|
 |--4S=====5-----------------5S===4--------------------|
 |--2S=====3------3----3-----3S===2-----2-------2------|
 |-----------------------------------------------------|

Bb5 B5 N.C. B5 Bb5 N.C. F5
 
 |----0-0--0-0--0-----|-----------|
 |-----------------------------------------------------|--------------|
 |-----------------------------------------------------|--------------|
 |-----------------------------------------------------|--------------|
 |-----------------------------------------------------|--------------|
 |-----------------------------------------------------|--------------|

|
 
 | PM--| PM-------------------|
 |-----------------------------------------------------|--------------|
 |-----------------------------------------------------|--------------|
 |-----------------------------------------------------|--------------|
 |--3S=====4-----------------4S===3--------------------|--------------|
 |--1S=====2------2----2-----2S===1-----1-------1------|-------3------|
 |-----------------------------------------------------|--0--0-1------|

Bb5 B5 N.C. B5 Bb5 N.C.
T T T T T T T T
 
 |-----------------------------------------------------|
 |-24p17-24p17---24p17-24p==17-24p17-24p17-24p17-24p17-|
 |-----------------------------------------------------|
 |-----------------------------------------------------|
 |-----------------------------------------------------|
 |-----------------------------------------------------|

|
 
 | PM---------| PM---|
 |-----------------------------------------------------|
 |-----------------------------------------------------|
 |-----------------------------------------------------|
 |--3S====4---------------------4S====3----------------|
 |--1S====2----2----------2-----2S====1-----1-----1----|
 |-----------------------------------------------------|

B5 C5 N.C. C5 B5N.C.
T T T T T T
 
 |-----------------------------------------|
 |-22p15-22p15---22p15-22p15---22p15-22p15-|
 |-----------------------------------------|
 |-----------------------------------------|
 |-----------------------------------------|
 |-----------------------------------------|

|
| PM| PM---|
 
 |-----------------------------------------|
 |-----------------------------------------|
 |-----------------------------------------|
 |--4S====5-------------5S===4-------------|
 |--2S====3----3--3-----3S===2--2-----2----|
 |-----------------------------------------|

Bb5 B5 N.C. B5 BbN.C.
T T T T T T
 
 |-----------------------------------------|
 |-20p13-20p13---20p13-20p13---20p13-20p13-|
 |-----------------------------------------|
 |-----------------------------------------|
 |-----------------------------------------|
 |-----------------------------------------|

|
 
 | PM| PM----------
 |-----------------------------------------|
 |-----------------------------------------|
 |-----------------------------------------|
 |--3S====4-------------4S===3-------------|
 |--1S====2----2--2-----2S===1--1-----1----|
 |-----------------------------------------|

F5 N.C. F5
T T T T T T
 
 |-----------------------------------------|
 |-18p12-18p12---18p12-18p12---18p12-18p12-|
 |-----------------------------------------|
 |-----------------------------------------|
 |-----------------------------------------|
 |-----------------------------------------|

|
 
 |-------| PM---|
 |-----------------------------------------|
 |-----------------------------------------|
 |-----------------------------------------|
 |-------------3----------------3----------|
 |-------------3----------------3----------|
 |--1-----1----1--------1----1--1----------|

Bb5 B5 N.C. B5 Bb5 N.C.
T T T T T T T T
 
 |-------------------------------------------|
 |-17p10-17p10-15p8-15p8-13p6-13p6-12p5-12p5-|
 |--------------------------------------

Important: The song above is NOT stored on the Chordie server. The original song is hosted at www.guitaretab.com. Chordie works as a search engine and provides on-the-fly formatting. Chordie does not index songs against artists'/composers' will. To remove this song please click here.

Text color:
Chord color:
Chord grids: 
Font size:    
Page size: 

C5 C5/G D Eb5
Rate #2 of 3 versions

Jango Player

Login - add to songbook

SHARE PAGE  




You need to log in to post comments