Guitar Tabs, Chords and Lyrics
Major upgrade!! After one year development the new version of Chordie is now online! Please give feedback.


California Babylon   Transplants

 
 e|---------------------| Just keep playing this
 B|-1-1-1-1-------------| until the solo comes up.
 G|-x-x-x-x-------------|
 D|-2-2-2-2-3-3-3-3-3-3-|
 A|-3-3-3-3-3-3-3-3-3-3-|
 E|---------1-1-1-1-1-1-|

 


 


 Solo:


 


 

 
 e|-------------------------------------------------------|
 B|-------------------------------------------------------|
 G|-------------------------------------------------------|
 D|-------------8~---11p10-7h8-10~--11p10-8h10-8\5-x-9-5--|
 A|-/6-6h8-8h10-------------------------------------------|
 E|-------------------------------------------------------|

 


 | Continued |


 

 
 e|-------------------------------------------------------|
 B|-------------------------------------------------------|
 G|-------------------------------------------------------|
 D|----------------------------4h6p4-8p6h8-6-8-8-8p6bh8-8-|
 A|-8bp6p0-6bp4p0-4:-4:-----------------------------------|
 E|---------------------5:-5:-----------------------------|

 


 | Continued |


 

 
 e|-------------------------------------------------------|
 B|-------------------------------------------------------|
 G|-------------------------------------------------------|
 D|-6p4-8-8-8--11-10-9-10~--9-----------------------------|
 A|---------------------------9-6bp4bh6bp4bh6bp4----------|
 E|----------------------------------------------6~-6:-6:-|

 


 


 The end part of the solo (6bp4bh6bp4bh6bp4) is a lot easier


 than it looks, just bend the string a bit and do the


 hammer-ons and pull-offs. I don't think the bending is


 nessicary anywhere, i just think it's a nice touch.


 


 After the "She thinks shes a star,do you know who you are?"


 part, the chorus/verse changes to this:


 


 Verse/Chorus II:


 


 Don't say that you dont un-der-stand


 x x x x x x x x1 x x1


 1 1 1 1 x x x x1 x x1


 x x x x x x x x2 x x2


 2 2 2 2 3 3 3 3x 3 3x


 3 3 3 3 3 3 3 3x 3 3x


 x x x x 1 1 1 1x 1 1x


 


 

 
 e|----------------1---1--|
 B|-1-1-1-1--------1---1--|
 G|-x-x-x-x--------2---2--|
 D|-2-2-2-2-3-3-3-3-3-3---|
 A|-3-3-3-3-3-3-3-3-3-3---|
 E|---------1-1-1-1-1-1---|


Important: The song above is NOT stored on the Chordie server. The original song is hosted at www.guitaretab.com. Chordie works as a search engine and provides on-the-fly formatting. Chordie does not index songs against artists'/composers' will. To remove this song please click here.

This song is displayed as text-only. Transposing and tuning is only available for chordpro-songs.
Rate #1 of 3 versions

Login - add to songbook

SHARE PAGE  




You need to log in to post comments