Guitar Tabs, Chords and Lyrics
Major upgrade!! After one year development the new version of Chordie is now online! Please give feedback.


We Trusted You   Transplants

 
 e----------------------------------3--|
 B--1----------1----------1---------3--|
 G--0----10----0----10----0----7----0--|
 D--2----10----2----10----2----7----0--|
 A--3----8-----3----8-----3----5----2--|
 E----------------------------------3--|

 


 


 You can also replace the f chord up there with this:


 


 e-----


 [B-----]  


 [G-----]  


 [D--3--]  


 [A--3--]  


 [E--1--]  


 (its just f but an ochtave higher)


 


 Chorus (Lead Guitar):


 


 This is almost perfect but im not 100%.


 


 

 
 e--8---------------------|
 B-----10--8--------------|
 G------------9--8--7--5--|
 D------------------------|
 A------------------------|
 E------------------------|

 


 


 Verse:


 


 (once again just listen for the strumming pattern)


 


 [(F)] [(C)] [(F)] [(G)]  


 

 
 e-----------------3--|
 B-------1---------3--|
 G-------0---------0--|
 D--3----2----3----0--|
 A--3----3----3----2--|
 E--1---------1----3--|


Important: The song above is NOT stored on the Chordie server. The original song is hosted at www.guitaretab.com. Chordie works as a search engine and provides on-the-fly formatting. Chordie does not index songs against artists'/composers' will. To remove this song please click here.

This song is displayed as text-only. Transposing and tuning is only available for chordpro-songs.
Rate #1 of 3 versions

Login - add to songbook

SHARE PAGE  




You need to log in to post comments