Guitar Tabs, Chords and Lyrics
Major upgrade!! After one year development the new version of Chordie is now online! Please give feedback.


Big Bear and the Hour of Chaos   Unearth

 
 e[------------------------------------------]
 b[------------------------------------------]
 G[------------------------------------------]
 D[-9~--------------9~-----------------------] X4
 A[-9~----12----14--9~-----------------------]
 E[-7~--10~---12~---7~----10-10\9---9h10p9---]
 B[-7~--8~----10~---7~--00--0-----00------10-]

 


 


 Guitar 2, Riff 2 1st & 3rd times


 

 
 [----------------------][----------------------------]
 [----------------------][----------------------------]
 [----------------------][----------------------------]
 [----------------------][----------------------------]
 [----------------------][---12--12--12--14--14--14---]
 [-----7-9-10-9-7-9-7---][-10--10--10--12--12--12-----]
 [-0-10--------------10-][----------------------------]

 


 


 2nd & 4th times


 

 
 [----------------------]
 [----------------------]
 [----------------------]
 [----------------------]
 [----------------------]
 [---10-10\9--9h10p9----]
 [-00--0----00------10--]

 


 


 After 2 times, Guitar 3 comes in with riff 1


 

 
 [---------------------------------]
 [---------------------------------]
 [---------------------------------]
 [-9--9-9-9--9-9/12-12-12-11-11-11-]
 [-x--x-x-x--x-x--x--x--x-x--x--x--]
 [-7--7-7-7--7-7/10-10-10-9--9--9--]
 [---------------------------------]

 


 


 (zAcoustic) bridge 1


 


 

 
 [---------------------------------------------]
 [---------------------------------------------]
 [---------------------------------------------]
 [-12~-------------------12~-------------------] X2
 [-x---------------------x---------------------]
 [-10~-12-14-12-14-12-14-10~----10-10----5-5---]
 [-----10-12-10-12-10-12------x-8--8--x--3-5---]

 


 


 Start over without bridge 1, then:


 


 


 

 
 [--------------------------------]
 [--------------------------------]
 [--------------------------------]
 [--------------------------------] X2
 [--7-77-7-6----------------------]
 [--5-55-5-4-7--5--5-5-5/7--------]
 [-----------5--3--3-3-3/5--0000--]

 


 


 long piano part then:


 


 this then: 1st&3rd 2nd&4th


 

 
 [----------------][-------]-------------------]
 [----------------][-------]-------------------]
 [-7----7----7----][-------]-------------------]
 [-x----x----x----][-------]-------------------]
 [-5----5----5----][-797979]---5-5-------------]
 [--0000-0000-0000][-575757]-x-3-3-x-5-5-------]
 [--0000-0000-0000][-------]-x-----x-3-3-------]
 [----------------------------------]
 [----------------------------------]
 [----------------------------------]
 [----------------------------------]
 [-2~-------------------------------]
 [-2~-------------------------------]
 [-0~-------------------------------]


Important: The song above is NOT stored on the Chordie server. The original song is hosted at www.guitaretab.com. Chordie works as a search engine and provides on-the-fly formatting. Chordie does not index songs against artists'/composers' will. To remove this song please click here.

This song is displayed as text-only. Transposing and tuning is only available for chordpro-songs.
Rate #1 of 4 versions

Login - add to songbook

SHARE PAGE  




You need to log in to post comments