Guitar Tabs, Chords and Lyrics
Update 25:10. 13:00. Site is back up running again. Songbooks are recovered. Woring on getting search back up..


Love√Ę??s Light   Vertical Horizon

 
 E |-2--3---3---3--5---|
 B |-3--3---3---3--3---|
 G |-2--0---0---2--2---|
 D |-0--2---0---0--0---|
 A |----3---2---0------|
 E |--------3---2------|

 


 


 [1] [2] [3] [4] 


 

 
 e:------0h2---------------3----------3------3----------3------3--------|
 B:-----------3-----3---------3------------------3----------------3-----|
 G:-------------2----------------0------------------0----------------2--|
 D:------0----------0---------------------------------------------------|
 A:------------------------3----------3---------------------------------|
 E:------------------------------------------3----------3------2--------|


Important: The song above is NOT stored on the Chordie server. The original song is hosted at www.guitaretab.com. Chordie works as a search engine and provides on-the-fly formatting. Chordie does not index songs against artists'/composers' will. To remove this song please click here.

This song is displayed as text-only. Transposing and tuning is only available for chordpro-songs.
Rate #2 of 2 versions

Jango Player

Login - add to songbook

SHARE PAGE  




You need to log in to post comments