Guitar Tabs, Chords and Lyrics
Server problems seems to be fixed. Chordie has been experiencing problems with songs disappearing. These issues now seems to be fixed, but still verifying the fix. If you find anything strange, please email admin@chordie.com.


Alle Meine Entchen   We Butter the Bread With Butter

 
 D|-------------------------------------------------|
 A|-------------------------------------------------|
 F|-------------------------------------------------|
 C|-------------------------------------------------|
 G|-------7-7-7-------------------7-7-7-------------|
 C|-0-0-0-------5-5-5-5-5-5-0-0-0-------5-5-5-5-5-5-|
 |-------------------------------------------------|
 |-------------------------------------------------|
 |-------------------------------------------------|
 |-------------------------------------------------|
 |-------8-8-8-------------------8-8-8-------------|
 |-3-3-3-------6-6-6-6-6-6-3-3-3-------6-6-6-6-6-6-|
 |-------------------------------------------------------|
 |-------------------------------------------------------|
 |-------------------------------------------------------|
 |-------10-10-10-------------------10-10-10-------------|
 |----------------8-8-8-8-8-8----------------8-8-8-8-8-8-|
 |-6-6-6----------------------6-6-6----------------------|
 |--------------------------------------------------|
 |--------------------------------------------------|
 |--------------------------------------------------|
 |-------10-10-10-8-8-8-7-7-7-----------------------|
 |---------------------------10-10-10-8-8-8-7-7-7---|
 |-5-5-5-----------------------------------------10-| X2

 


 


 Breakdown


 [0:29]-[0:40]


 

 
 |---------------------------------------------------------------|
 |---------------------------------------------------------------|
 |---------------------------------------------------------------|
 |---------------------------------------------------------------|
 |-0-3-2-0-0---0-0-0---0000-0---0-3-2-0-000---0-0-000---00000000-|
 |-0-3-2-0-0---0-0-0---0000-0---0-3-2-0-000---0-0-000---00000000-|

 


 . . . . . . . . .... . . . . . ... . . ... ........


 


 [0:40]-[1:05]


 

 
 |------------------------------------------------------------------------------------|
 |------------------------------------------------------------------------------------|
 |------------------------------------------------------------------------------------|
 |-0~--5~--8~--7~--0-------------5-5--------------8-----------------7-----------------|
 |-0~--5~--8~--7~--0-0-0--0--0-0-5-5-5-5--5-5-5-5-8-8-8-8-8--8--8-8-7-7--7-7--7-7-7-7-|
 |-0~--5~--8~--7~--0-0-0--0--0-0-5-5-5-5--5-5-5-5-8-8-8-8-8--8--8-8-7-7--7-7--7-7-7-7-|

 


 . . . . . . . . . . . . . . . . . . . . . . . . . . . . . .


 


 [1:05]-[1:16]


 

 
 |-------------------------------------------------|
 |-------------------------------------------------|
 |-------------------------------------------------|
 |-------------------------------------------------|
 |-------7-7-7-------------------7-7-7-------------|
 |-0-0-0-------5-5-5-5-5-5-0-0-0-------5-5-5-5-5-5-|
 |-------------------------------------------------|
 |-------------------------------------------------|
 |-------------------------------------------------|
 |-------------------------------------------------|
 |-------8-8-8-------------------8-8-8-------------|
 |-3-3-3-------6-6-6-6-6-6-3-3-3-------6-6-6-6-6-6-|
 |-------------------------------------------------------|
 |-------------------------------------------------------|
 |-------------------------------------------------------|
 |-------10-10-10-------------------10-10-10-------------|
 |----------------8-8-8-8-8-8----------------8-8-8-8-8-8-|
 |-6-6-6----------------------6-6-6----------------------|
 |---------------------------------------------------|
 |---------------------------------------------------|
 |---------------------------------------------------|
 |-------10-10-10-8-8-8-7-7-7------------------------|
 |---------------------------10-10-10-8-8-8-7-7-7----|
 |-5-5-5------------------------------------------10-|

 


 


 [1:17]-[1:40]


 

 
 |-----------------------------------------------------------------|
 |-----------------------------------------------------------------|
 |-----------------------------------------------------------------|
 |-----------------------------------------------------------------|
 |-000-0-0-5h8p5h8p5-000-000-0-0-3h7p3h7p3h7-000-000-0-0-5h8p5h8p5-|
 |-000-0-0-----------000-000-0-0-------------000-000-0-0-----------|

 


 ... . . ... ... . . ... ... . .


 


 

 
 |-------------------------------------------------------------------|
 |-------------------------------------------------------------------|
 |-------------------------------------------------------------------|
 |-------------------------------------------------------------------|
 |-000-000-0-0-3h7p3h7p3h7p3h7p3h7p3h7-555-5-5-5h8p5h8p5-555-555-5-5-|
 |-000-000-0-0-------------------------555-5-5-----------555-555-5-5-|

 


 ... ... . . ... . . ... ... . .


 


 

 
 |-----------------------------------------------------------------------|
 |-----------------------------------------------------------------------|
 |-----------------------------------------------------------------------|
 |-----------------------------------------------------------------------|
 |-3h7p3h7p3h7-555-888-8-8-5h8p5h8p5-888-777-7-7-3h7p3h7p3h7p3h7p3h7p3h7-|
 |-------------555-888-8-8-----------888-777-7-7-------------------------|

 


 ... ... . . ... ... . .


 


 

 
 |-------------------------------------------------------------------------|
 |-------------------------------------------------------------------------|
 |-------------------------------------------------------------------------|
 |-------------------------------------------------------------------------|
 |-000-0-0-5h8p5h8p5-000-777-7-7-3h7p3h7p3h7p3h7p3h7p3h7-555-5-5-5h8p5h8p5-|
 |-000-0-0-----------000-777-7-7-------------------------555-5-5-----------|

 


 ... . . ... ... . . ... . .


 


 

 
 |-------------------------------------|
 |-------------------------------------|
 |-------------------------------------|
 |-------------------------------------|
 |-555-888-8-8-3h7p3h7p3h7p3h7p3h7p3h7-|
 |-555-888-8-8-------------------------| X2

 


 ... ... . .


 


 [1:40]-[1:17]


 

 
 |-------------------------|
 |-------------------------|
 |-------------------------|
 |-0~--5--8~--7~7~-7-7-7-7-|
 |-0~--5--8~--7~7~-7-7-7-7-|
 |-0~--5--8~--7~7~-7-7-7-7-|
 |--------------------------------------------------------------------|
 |--------------------------------------------------------------------|
 |--------------------------------------------------------------------|
 |-0-------------5-5--------------8-----------------7-----------------|
 |-0-0-0--0--0-0-5-5-5-5--5-5-5-5-8-8-8-8-8--8--8-8-7-7--7-7--7-7-7-7-|
 |-0-0-0--0--0-0-5-5-5-5--5-5-5-5-8-8-8-8-8--8--8-8-7-7--7-7--7-7-7-7-| X2

 


 . . . . . . . . . . . . . . . . . . . . . . . . . . . . .


 


 

 
 |------------------------------------------------|
 |------------------------------------------------|
 |------------------------------------------------|
 |------------------------------------------------|
 |-------7-7-7-------------------7-7-7------------|
 |-0-0-0-------5-5-5-5-5-5-0-0-0------5-5-5-5-5-5-|
 |-------------------------------------------------|
 |-------------------------------------------------|
 |-------------------------------------------------|
 |-------------------------------------------------|
 |-------8-8-8-------------------8-8-8-------------|
 |-3-3-3-------6-6-6-6-6-6-3-3-3-------6-6-6-6-6-6-|
 |-------------------------------------------------------|
 |-------------------------------------------------------|
 |-------------------------------------------------------|
 |-------10-10-10-------------------10-10-10-------------|
 |----------------8-8-8-8-8-8----------------8-8-8-8-8-8-|
 |-6-6-6----------------------6-6-6----------------------|
 |--------------------------------------------------|
 |--------------------------------------------------|
 |--------------------------------------------------|
 |-------10-10-10-8-8-8-7-7-7-----------------------|
 |---------------------------10-10-10-8-8-8-7-7-7---|
 |-5-5-5-----------------------------------------10-| 


Important: The song above is NOT stored on the Chordie server. The original song is hosted at www.guitaretab.com. Chordie works as a search engine and provides on-the-fly formatting. Chordie does not index songs against artists'/composers' will. To remove this song please click here.

This song is displayed as text-only. Transposing and tuning is only available for chordpro-songs.
Rate #2 of 2 versions

Login - add to songbook

SHARE PAGE  



You need to log in to post comments