Guitar Tabs, Chords and Lyrics
Server problems seems to be fixed. Chordie has been experiencing problems with songs disappearing. These issues now seems to be fixed, but still verifying the fix. If you find anything strange, please email admin@chordie.com.


V-Day  The Wildhearts

Date: Fri, 2 Jun 1995 16:00:16 +0100
Subject: TAB: V-Day by THE WiLDHEARTS
V - DAY
=======
The Wildhearts from the album p.h.u.q., track 2.
What there is transcribed by Colin Lewis (col3@aber.ac.uk)
Note: I am a very unexperienced tabber, so don't be too surprised if this all
sounds very wrong in places, especially the chorus and break bit. I
have tried my best, but only stumbled onto the main riff by accident.
I would have included lyrics, but buggered if I can work 'em
out. Better to leave 'em up to your own imagination!!!!
Timimg: I can't really put this stuff down accurately, so this is only general.
As is the case with a lot of stuff, check out the original to get it
spot on.
Finally: Enjoy - I love it, and any other stuff would be mostly
appreciated, as would corrections. I'll keep this here on my filestore,
so if you can improve it then don't keep it yourself, and I will edit
mine and repost it.
INTRO:
 
 --3-- --3--
 e-------------|---------------|---------------------------------------------
 B-------------|o-------------o|--Repeat the section as many times as--------
 G---------9---|----------9----|---------------------------------------------
 D---9---9---9-|---9----9---9--|--you want, as I've never bothered counting--
 A-------------|o-------------o|---------------------------------------------
 E-------------|---------------|---------------------------------------------
 Harm----------------------:

All notes played are Natural Harmonics ( I think )
[G#] [A] [A#] [B] [C#] [D#] [E]  
 
 e--------------------------------------------------------------
 B--------------------------------------------------------------
 G-------------------6---8---9----------------------------------
 D---6---7---8---9---6---8---9----------------------------------
 A---6---7---8---9---4---6---7----------------------------------
 E---4---5---6---7----------------------------------------------

RIFF A
 
 ------

[B] [D#] [B] [C#]  
 
 e----------------------------------------------------------------------------|
 B----------------------------------------------------------------------------|
 G------------------------------8--8-8-8-----------------------------6--6-6-6-|
 D--9--9-9-9-9--9-9-9-9--9-9-9--8--8-8-8-9--9-9-9-9--9-9-9-9--9-9-9--6--6-6-6-|
 A--9--9-9-9-9--9-9-9-9--9-9-9--6--6-6-6-9--9-9-9-9--9-9-9-9--9-9-9--4--4-4-4-|
 E--7--7-7-7-7--7-7-7-7--7-7-7-----------7--7-7-7-7--7-7-7-7--7-7-7-----------|

[G#] [D#] [G#] [E]  
 
 e----------------------------------------------------------------------------|
 B----------------------------------------------------------------------------|
 G------------------------------8--8-8-8-----------------------------9--9-9-9-|
 D--6--6-6-6-6--6-6-6-6--6-6-6--8--8-8-8-6--6-6-6-6--6-6-6-6--6-6-6--9--9-9-9-|
 A--6--6-6-6-6--6-6-6-6--6-6-6--6--6-6-6-6--6-6-6-6--6-6-6-6--6-6-6--7--7-7-7-|
 E--4--4-4-4-4--4-4-4-4--4-4-4-----------4--4-4-4-4--4-4-4-4--4-4-4-----------|

RIFF B
 
 ------

[B] [D#] [B] [C#]  
 
 e----------------------------------------------------------------------------|
 B----------------------------------------------------------------------------|
 G------------------------------8--8-8-8-----------------------------6--4--2--|
 D--9--9-9-9-9--9-9-9-9--9-9-9--8--8-8-8-9--9-9-9-9--9-9-9-9--9-9-9--6--4--2--|
 A--9--9-9-9-9--9-9-9-9--9-9-9--6--6-6-6-9--9-9-9-9--9-9-9-9--9-9-9--4--2--0--|
 E--7--7-7-7-7--7-7-7-7--7-7-7-----------7--7-7-7-7--7-7-7-7--7-7-7-----------|

[G#] [D#] [G#] [E]  
 
 e----------------------------------------------------------------------------|
 B----------------------------------------------------------------------------|
 G------------------------------8--8-8-8-----------------------------9---9----|
 D--6--6-6-6-6--6-6-6-6--6-6-6--8--8-8-8-6--6-6-6-6--6-6-6-6--6-6-6--9---9----|
 A--6--6-6-6-6--6-6-6-6--6-6-6--6--6-6-6-6--6-6-6-6--6-6-6-6--6-6-6--7---7----|
 E--4--4-4-4-4--4-4-4-4--4-4-4-----------4--4-4-4-4--4-4-4-4--4-4-4-----------|

CHORUS
 
 ------

[E] [B] [C#] [D#]  
 
 e----------------------------------------------------|
 B----------------------------------------------------|
 G---9-----------------------6-----------8------------|
 D---9-----------9-----------6-----------8------------|
 A---7-----------9-----------4-----------6------------|
 E---------------7------------------------------------|

[E] [B] [G#] [C#]  
 
 e----------------------------------------------------|
 B----------------------------------------------------|
 G---9-----------------------------------6------------|
 D---9-----------9-----------6-----------6------------|
 A---7-----------9-----------6-----------4------------|
 E---------------7-----------4------------------------|

BRIDGE
 
 ------

[B] [C#]  
 
 e-------------------------------------------------------------------|
 B-------------------------------------------------------------------|
 G------------------------------------------------------------6------|
 D---9----9----9----9----9--9-9-9-9--9-9-9-9--9-9-9-9-9-9-9---6------|
 A---9----9----9----9----9--9-9-9-9--9-9-9-9--9-9-9-9-9-9-9---4------|
 E---7----7----7----7----7--7-7-7-7--7-7-7-7--7-7-7-7-7-7-7----------|
 P.M.------------

[B] [C#] [E] [B] [E]  
 
 e--------------------------------------------------|
 B---12-----------------------------12--------------|
 G---11------6---------------9------11------9-------|
 D---9-------6-----X\--------9------9-------9-------|
 A-----------4-----X\\-------7--------------7-------|
 E-----------------X\\\-----------------------------|

PICK SLIDE
[B] [E]  
 
 e-|-------------------------------|
 B-|o---12--X-X-X-X--12--X-X-X-X--o|
 G-|----11--X-X-X-X--9---X-X-X-X---|
 D-|----9---X-X-X-X------X-X-X-X---|
 A-|o-----------------------------o|
 E-|-------------------------------|

ENDING
 
 ------

x3
 
 e-------------|--------------------|----------------------|
 B-------------|o------------------o|----------------------|
 G-------------|--------------------|----------------------|
 D--9--9-9-9-9-|--9-9-9-9--9-9-9-9--|-9-9-9-9--------------|
 A--9--9-9-9-9-|o-9-9-9-9--9-9-9-9-o|-9-9-9-9--------------|
 E--7--7-7-7-7-|--7-7-7-7--7-7-7-7--|-7-7-7-7--------------|

LAYOUT OF SONG
 
 --------------

INTRO
RIFF A x2
RIFF B x3 - 1ST VERSE ( ON LAST TIME THROUGH THE VERY ENDING IS DIFFERENT )
CHORUS
RIFF A x2
RIFF B x3 - 2ND VERSE ( --"-- )
CHORUS
BREAK
RIFF B x2 - 3RD VERSE
CHORUS
RIFF A x4
ENDING
Enjoy. Any corrections, then don't keep them to yourself as I want the
finished song as well!!!!!!

Important: The song above is NOT stored on the Chordie server. The original song is hosted at www.guitaretab.com. Chordie works as a search engine and provides on-the-fly formatting. Chordie does not index songs against artists'/composers' will. To remove this song please click here.

Text color:
Chord color:
Chord grids: 
Font size:    
Page size: 

A A# B C# D# E G#
Rate #1 of 2 versions

Jango Player

Login - add to songbook

SHARE PAGE  



You need to log in to post comments