Guitar Tabs, Chords and Lyrics
Server problems seems to be fixed. Chordie has been experiencing problems with songs disappearing. These issues now seems to be fixed, but still verifying the fix. If you find anything strange, please email admin@chordie.com.


Rock Show  Wings

Wings
Rock Show
 
 E|-------------------------------------|
 B|-------------------------------------|
 G|-----------------2-------------------|
 D|-----------2-2-4--------------2---2--|
 A|---0-0-3-4------------0-0-3-4---4----|
 E|-------------------------------------|
 E|-------------------------------------|
 B|-------------------------------------|
 G|-----------------2-------------------|
 D|-----------2-2-4--------------2---2--|
 A|---0-0-3-4------------0-0-3-4---4----|
 E|-------------------------------------|
 E|-------------------------------------|
 B|-------------------------------------|
 G|-------------------------------------|
 D|----------------------0-1-2-3-4------|
 A|------------0-1-2-3-4----------------|
 E|--0-1-2-3-4--------------------------|

[A]What's that man holding in his hand?
He looks a lot like a guy I knew way back when
[E7]Its silly willy with philly band
[A]Could be ... Oo-ee ...
[A]What's that man movin' cross the stage?
It looks a lot like the one used by jimmy page
[E7]Its like a relic from a different age
[A]Could be ...Oo-ee ...
[D]If there's rock show
[A7]At the concertgebow
[D]They're got long hair
[A7]At the madison square
[D]You've got rock and roll
[A7]At the hollywood bowl,
We'll be there ... Oo yeah ...
[D]The lights go down - they're back in town o.[D]k.
[D]Behind the stacks you glimpse an [G]axe [G] [A] [D]
[D]The tension mounts you score an ounce o[D]le!
[E]Temperatures rise as you see the white of their [A]eyes
 
 E|-------------------------------------|
 B|-------------------------------------|
 G|-------------------------------------|
 D|-----------------------0-1-2-3-4-----|
 A|-------------0-1-2-3-4---------------|
 E|---0-1-2-3-4-------------------------|

[D]If there's rock show
[A7]At the concertgebow
[D]You're got long hair
[A7]At the madison square
[D]They've got rock and roll
[A7]At the hollywood bowl,
We'll be there ... Oo yeah ...
[A]In my green metal suit I'm preparing to shoot up the city
[A]And the ring at the end of my nose makes me look rather pretty [A] [Bb] [B]
[B]Its a pity there's nobody here to witness the end
Save for [B]my dear old [A]friend and [G]confidante - [F]madamoiselle [E]kitty
[A]What's that man movin' to and fro?
That decibel meter doesn't seem to be reading low.
[E7]But they was louder at the rainbow
[A]Could be .... Oo-ee ...
[D]If there's rock show
[A7]At the concertgebow
[D]They're got long hair
[A7]At the madison square
[D]You got rock and roll
[A7]At the hollywood bowl,
We'll be there ... Oo yeah ...
[D]If there's rock show ... [A]
[D]If there's rock show ... [A]
[D]If there's rock show ... [A]

Important: The song above is NOT stored on the Chordie server. The original song is hosted at www.guitaretab.com. Chordie works as a search engine and provides on-the-fly formatting. Chordie does not index songs against artists'/composers' will. To remove this song please click here.

Text color:
Chord color:
Chord grids: 
Font size:    
Page size: 

A A7 B Bb D E E7 F G
Rate #1 of 4 versions

Jango Player

Login - add to songbook

SHARE PAGE  




You need to log in to post comments