Guitar Tabs, Chords and Lyrics
Server problems seems to be fixed. Chordie has been experiencing problems with songs disappearing. These issues now seems to be fixed, but still verifying the fix. If you find anything strange, please email admin@chordie.com.


Band on the Run  Wings

______________________________________________________
* 01. Band On The Run *
* 02. Jet *
* 03. Bluebird *
* 04. Mrs. Vanderbilt *
* 05. Let Me Roll It *
* 06. Mamunia *
* 07. No Words *
* 08. Picasso?s Last Words *
* 09. Nineteen Hundred and Eighty Five *
* 10. Helen Wheels *
* 11. Country Dreamer *
* *
 
 ------------------------------------------------------

Artist: Paul McCartney And Wings
Album: Band On The Run
Year: 1973
 
 --------------------------------------------------------------------------------

Wings
Band On The Run
(McCartney)
Intro:
 
 E|--10/12-10---5/7-5-----2~---2-2~----5h7-5h7-5h7-5----10/12-10---5~----|
 B|--10/12-10---5/7-5-----2~---2-2~----5h7-5h7-5h7-5----10/12-10---5~----|
 G|-----------------------2~---2-2~--------------------------------------|
 D|-----------------------0~---0-0~--------------------------------------|
 A|----------------------------------------------------------------------|
 E|----------------------------------------------------------------------|
 E|--5h7-5h7-5h7-5~-----10/12-10---5/7-5-----2~---2-2~----5h7-5h7-5h7-5--|
 B|--5h7-5h7-5h7-5~-----10/12-10---5/7-5-----2~---2-2~----5h7-5h7-5h7-5--|
 G|------------------------------------------2~---2-2~-------------------|
 D|------------------------------------------0~---0-0~-------------------|
 A|----------------------------------------------------------------------|
 E|----------------------------------------------------------------------|
 E|--10/12-10---5~----5h7-5h7-5h7-5-----15-14-12-10--10-11--/15---|
 B|--10/12-10---5~----5h7-5h7-5h7-5-----15-14-12-10--10-11--/15---|
 G|---------------------------------------------------------------|
 D|---------------------------------------------------------------|
 A|---------------------------------------------------------------|
 E|---------------------------------------------------------------|
 E|--15-14-12-10--10-11--/15--14h15-14---|
 B|--15-14-12-10--10-11--/15-------------|
 G|--------------------------------------|
 D|--------------------------------------|
 A|--------------------------------------|
 E|--------------------------------------|

[Dmaj7]Stuck inside these four walls,
[G]Sent inside forever,
[Dmaj7]Never seeing no one
[G]Nice again
Like [Dmaj7]you [G]Mama [Dmaj7]you [G]Mama [Dmaj7]you.[Gm]
[Am] [D]  
 
 E|-------------------------------------------|
 B|-------------------------------------------|
 G|-----5-5-5/4-4-4/2-2-2~-----7-7-7-7-7/4-4--|
 D|-----2-2-2/2-2-2/2-2-2~--0--4-4-4-4-4-0-0--|
 A|--0----------------------------------------|
 E|-------------------------------------------|

[Am] [D] [Am]  
 
 E|--------------------------------------------------------------------------|
 B|--------------------------------------------------------------------------|
 G|-----5-5-5/4-4-4/2-2-2~-----7-7-7-7-7/4-4--5-5-5/4-4-4/2-2-2~-------------|
 D|-----2-2-2/2-2-2/2-2-2~--0--4-4-4-4-4-0-0--2-2-2/2-2-2/2-2-2~----2--------|
 A|--0------------------------------------------------------------0----------|
 E|-------------------------------------------------------------------0--3^--|

[Am] [D]  
 
 E|-------------------------------------------|
 B|-------------------------------------------|
 G|-----5-5-5/4-4-4/2-2-2~-----7-7-7-7-7/4-4--|
 D|-----2-2-2/2-2-2/2-2-2~--0--4-4-4-4-4-0-0--|
 A|--0----------------------------------------|
 E|-------------------------------------------|

[Am] [D] [Am]  
 
 E|--------------------------------------------------------------------------|
 B|--------------------------------------------------------------------------|
 G|-----5-5-5/4-4-4/2-2-2~-----7-7-7-7-7/4-4--5-5-5/4-4-4/2-2-2~-------------|
 D|-----2-2-2/2-2-2/2-2-2~--0--4-4-4-4-4-0-0--2-2-2/2-2-2/2-2-2~----2--------|
 A|--0------------------------------------------------------------0----------|
 E|-------------------------------------------------------------------0--3^--|

[Am]If I ever get out of here,
[D]Thought of giving it all away
[Am]To a registered charity.
[D]All I need is a pint a day
If I [Am]ever get out of here.
If I [Am]ever get out of here.
 
 E|--------------------------------------------------------------|
 B|--------------------------------------------------------------|
 G|--------------------7--7-7--5~--------------------7--7-7--5~--|
 D|-----------------5--7--7-7--5~-----------------5--7--7-7--5~--|
 A|--------3--5--7-----5--5-5--3~--------3--5--7-----5--5-5--3~--|
 E|---3--5--------------------------3--5-------------------------|
 E|----------------0--0--0--0---1--1--1--1---0--0--0--0---1--1--1--1---|
 B|----------------1--1--1--1---1--1--1--1---1--1--1--1---1--1--1--1---|
 G|----------------0--0--0--0---0--0--0--0---0--0--0--0---0--0--0--0---|
 D|----------------2--2--2--2---2--2--2--2---2--2--2--2---2--2--2--2---|
 A|--------3-------3--3--3--3----------------3--3--3--3----------------|
 E|---3--5----3--5-----------------------------------------------------|

Well, the [C]rain exploded with a [Fmaj7]mighty crash
As we fell into the su[C]n,
And the [C]first one said to the [Fmaj7]second one there
I hope you're having f[Em]un.
[G]Band on the [C]run, [Em]band [C]on the [Am]run.
And the [Fmaj7]jailer man and [C]sailor Sam
Were [Fmaj7]searching every one
For the [C]band [Fmaj7]on the [C]run,[Fmaj7] [C]band [Fmaj7]on the[C] run[Fmaj7]
[C] [Fmaj7] [C] [Fmaj7] [C] [Fmaj7]  
ba[Fmaj7]nd on the run, band on the run
Well, the [C]undertaker drew a [Fmaj7]heavy sigh
Seeing no one else had come,[C]
And a [C]bell was ringing in the [Fmaj7]village square
For the rabbits on the ru[Em]n.
[G]Band on the [C]run, [Em]band [C]on the [Am]run.
And the [Fmaj7]jailer man and [C]sailor Sam
Were [Fmaj7]searching every one
For the [C]band [Fmaj7]on the [C]run,[Fmaj7] [C]band [Fmaj7]on the[C] run[Fmaj7]
Solo: Fmaj7 | C | Fmaj7
For the [C]band [Fmaj7]on the [C]run,[Fmaj7] [C]band [Fmaj7]on the[C] run[Fmaj7]
[C] [Fmaj7] [C] [Fmaj7] [C] [Fmaj7]  
ba[Fmaj7]nd on the run, band on the run
Well, the [C]night was falling as the [Fmaj7]desert world
Began to settle dow[C]n.
In the [C]town they're searching for us [Fmaj7]every where
But we never will be fo[Em]und.
[G]Band on the [C]run, [Em]band [C]on the [Am]run.
Fmaj7 Riff C
And the county judge, who held a grudge
Will [Fmaj7]search for ever more
For the [C]band [Fmaj7]on the [C]run,[Fmaj7] [C]band [Fmaj7]on the[C] run[Fmaj7]
[C] [Fmaj7] [C] [Fmaj7] [C] [Fmaj7]  
ba[Fmaj7]nd on the run, band on the run
[Em] [G] [C]  
 
 --------------------------------------------------------------------------------

Wings
Jet
Intro x3 __________
| 1, 2
 
 E|-----------------------------|------------|
 B|-----------------------------|------------|
 G|--4---4-6-7-------4---4-6-7--|--9---------|
 D|--4---4-6-7-------4---4-6-7--|--9---------|
 A|--2---2-4-5-------2---2-4-5--|--7---------|
 E|-----------------------------|------------|

[A]Jet! I can almost remember their [D]funny [A]faces
That time you told me that
You were going to be marrying [D]soon.
And [C#m7]Jet, I thought the on[Bm]ly
[B5]Lone[C#5]ly p[D6]lace was on the [A]moon.
[A]Jet! [A]Jet!
[A]Jet! Was your father as bold as a [D]sergeant [A]major?
How come he told you that
You were hardly old enough [D]yet?
And [C#m7]Jet, I thought the ma[Bm]jor
[B5]Was[C#5] a l[D6]ady suffraget[A]te.
[A]Jet! [A]Jet!
[Bm]Ah, matter, want Jet to al[E]ways love me?
[Bm]Ah, matter, want Jet to al[E]ways love me?
[Bm]Ah, matter, [A]much later. Oh Jet
[D] [A] [C] [G] [D] [A] [A]  
[D] [A] [C] [G] [D] [A] [A]  
Solo:
[A] [D] [A]  
 
 E|-17---14----------------------------------|
 B|---------17-14-------------14-------------|
 G|---------------16-14-14-16----------------|
 D|------------------------------16-16-16-14-|
 A|------------------------------------------|
 E|------------------------------------------|

[A] [D]  
 
 E|-/17-17-17-17-14-------------------------------------------------|
 B|-----------------17-14-------------14----------------------------|
 G|-----------------------16-14-14-16-------------------------------|
 D|--------------------------------------16---14h16-14h16-14h16-14--|
 A|-----------------------------------------------------------------|
 E|-----------------------------------------------------------------|

[Cm7]Jet, I thought the [Bm]major
[B5]Was[C#5] a l[D6]ady suffraget[A]te.
[A]Jet!J[A]et!
[Bm]Ah, matter, want Jet to al[E]ways love me?
[Bm]Ah, matter, want Jet to al[E]ways love me?
[Bm]Ah, matter, [A]much later.
[D] [A] [C] [G] [D] [A] [A]  
[D] [A] [C] [G] [D] [A] [A]  
[A]Jet! with the wind in your hair of a [D]thousand [A]laces.
Climb on the back and we'll
Go for a ride in the [D]sky.
[Cm7]Jet, I thought the [Bm]major
[B5]Was[C#5] a l[D6]ady suffraget[A]te.
[A]Jet!J[A]et!
[E]  
 
 E|--------------------------|
 B|--------------------------|
 G|----9---------------------|
 D|----9---------------------|
 A|----7---------------------|
 E|--------------------------|

Yeah
[Cm7]Jet, I thought the [Bm]major
[B5]Was[C#5] a l[D6]ady suffraget[A]te.
[A]Jet!
 
 E|-----------------------------------------|
 B|-----------------------------------------|
 G|--4---4-6-7-------4---4-6-7----9---------|
 D|--4---4-6-7-------4---4-6-7----9---------|
 A|--2---2-4-5-------2---2-4-5----7---------|
 E|-----------------------------------------|

End:
[A] [D] [A]  
 
 E|-17---14-----------------------------------|
 B|---------17-14-------------14--------------|
 G|---------------16-14-14-16----16-16-16--14~|
 D|-------------------------------------------|
 A|-------------------------------------------|
 E|-------------------------------------------|
 --------------------------------------------------------------------------------

Wings
Bluebird
(McCartney)
[Gm]Late at night when the wind is still
I'll come [Fm]flying through your do[Bb6]or,
And you'll [Fm]know what love is [Bb]for.
l'm a bluebird, I'm a [Ebmaj7]bluebird
l'm a bluebird, l'm a [Ab6]bluebird
Yeah, yeah, yeah.
l'm a bluebird, I'm a [Ebmaj7]bluebird
l'm a [Ab6]bluebird,
[Gm]Touch your lips with a magic kiss
And you'll [Fm]be a bluebird [Bb6]too,
And you'll [Fm]know what love can [Bb]do.
l'm a bluebird, I'm a [Ebmaj7]bluebird
l'm a bluebird, l'm a [Ab6]bluebird
Yeah, yeah, yeah.
l'm a [Ebmaj7]bluebird, I'm a bluebird
l'm a [Ab6]bluebird
[Cm]Bluebird[Cm/Bb]
Ah [Dm7]Ha,[G7]
[Cm]Bluebird[Cm/Bb]
Ah [Dm7]Ha,[G7]
[Ab]Bluebird[Ebmaj7].
[Gm]Fly away through the midnight air
As we [Fm]head across the [Bb6]sea,
And at [Fm]last we will be [Bb]free.
l'm a bluebird, I'm a [Ebmaj7]bluebird
l'm a bluebird, l'm a [Ab6]bluebird
Yeah, yeah, yeah.
You're a [Emja7]bluebird, You're a bluebird
You're a [Ab6]bluebird
Yeah, yeah ,yeah.
[Cm]Bluebird[Cm/Bb]
Ah [Dm7]Ha,[G7]
[Cm]Bluebird[Cm/Bb]
Ah [Dm7]Ha,[G7]
[Ab]Bluebird.[Ebmaj7]
[Gm]All alone on a desert island
We're [Fm]living in the [Bb6]trees,
And we're [Fm]flying in the [Bb]breeze.
l'm a bluebird, I'm a [Ebmaj7]bluebird
l'm a bluebird, l'm a [Ab6]bluebird
Yeah, yeah, yeah.
l'm a bluebird, I'm a [Ebmaj7]bluebird
Ab6 G | Cm Bb Ab G
l'm a bluebird,
[Cm]Bluebird[Cm/Bb]
Ah [Dm7]Ha,[G7]
[Cm]Bluebird[Cm/Bb]
Ah [Dm7]Ha,[G7]
[Ab]Bluebird.[Ebmaj7]
 
 --------------------------------------------------------------------------------

Wings
Mrs Vanderbilt
(McCartney)
Chords:
Am: [EADGBE]002210
Em7: 022030
E7: x20130
A: 002220
Dm6: xx0201
Dm: x00231
Dm/C: x30231
G: 320003
C: 032010
Em: 022000
E: 022100
INTRO: Am Em E7 Am
[Am]Down in the jungle living in a tent
You d[Em7]on't use money you don't pay rent
You [E7]don't even know the time
But you don't m[Am]ind
Ho hey [Em7]ho
[E7]Ho hey [Am]ho
Ho hey [Em7]ho
[E7]Ho hey [Am]ho
When your light is on the bl[Em7]ink
You never th[E7]ink of worry[Am]ing
[E7]What's the use of wo[Am]rrying
When your bus has left the s[Em7]top
You'd better d[E7]rop your hurr[Am]ying
[E7]What's the use of hurr[Am]ying[A]
[Dm]Leave me a[Dm/C]lone, Mrs V[G]anderbilt
I've got pl[C]enty of time on my [Em]own[Dm] [Am]
[E]What's the use of w[Am]orrying
[E]What's the use of h[Am]urrying
[E]What's the use of [Dm6]anyt[Am]hing
Ho hey ho
Ho hey ho
Ho hey ho
Ho hey ho
When your pile is on the wane
You don't complain of robbery
Run away don't bother me
What's the use of worrying
What's the use of anything
Leave me alone, Mrs Washington
I've got plenty of time on my own
What's the use of worrying
What's the use of hurrying (no use)
What's the use of anything
Ho hey ho
Ho hey ho
Ho hey ho
Ho hey ho
Ho hey ho
Ho hey ho
Ho hey ho
Ho hey ho
 
 --------------------------------------------------------------------------------

Wings
Let Me Roll It
(McCartney)
Chords:
A: [EADGBE]x02220
F#m: 244222
E: 022100
INTRO: A F#m A F#m E A E A F#m E
[E]You gave me something
[F#m] I understand
[E] You gave me loving in the [F#m]palm of my hand
[A]I can't [F#m]tell you how I f[A]eel
My h[F#m]eart is like a w[E]heel
Let me r[A]oll it
[E] Let me r[A]oll it to you
[E] Let me r[A]oll it
[E] Let me r[A]oll it to you[E] [F#m] [E] [F#m]
I want to tell you
And now's the time
I want to tell you that you're going to be mine
I can't tell you how I feel
My heart is like a wheel
Let me roll it
Let me roll it to you
Let me roll it
Let me roll it to you
I can't tell you how I feel
My heart is like a wheel
Let me roll it
Let me roll it to you
Let me roll it
Let me roll it to you
You gave me something
I understand
You gave me loving in the palm of my hand
I can't tell you how I feel
My heart is like a wheel
Let me roll it
Let me roll it to you
Let me roll it
Let me roll it to you
F#m E F#m E...
Riff?S:
Intro Riff Bass:
[A] [F#m] [A] [F#m]  
 
 E |------------------|---------------------------------|
 B |------------------|---------------------------------|
 G |------------------|---------------------------------|
 D |-------2--4--2--2-|-------2--4?4h6h4--2-------|
 A |-0--/4------------|-0--/4---------------------------|
 E |------------------|---------------------------------|

E A x4 E
 
 E |--|-----------------|--|--------------0--0--0----|
 B |-0|-----------------|0-|--------------0--0--0----|
 G |--|-----------------|--|-----------1--1--1--1----|
 D |--|---------------4-|--|--------2--2--2--2--2----|
 A |-0|---------0--/4---|0-|-----2--2--2--2--2--2----|
 E |--|-0--/4-----------|--|--0--0--0--0--0--0--0----|

Little Riff:
[F#m] [E]  
 
 E |--2h3-2--0--2-0-----------|--2h3-2--0--2-0-----------|
 B |--2------0--2-0--2--0-----|--2------0--2-0--2--0-----|
 G |-----------------2--0-----|-----------------2--0-----|
 D |--------------------------|--------------------------|
 A |--------------------------|--------------------------|
 E |--------------------------|--------------------------|
 --------------------------------------------------------------------------------

Wings
[Mamunia](McCartney)
Chords EADGBE
Amaj9 x02225
Amaj8 x02224
A6 x02222
A x02220
Asus4 x02230
D xx0232
E 022100
C x32010
C/B x20010
Am x02210
Am/G 3x2210
Am/F# 2x2210
F 1332xx
Dm xx0231
C/G 3x2010
Amaj9 Amaj8 A6 A
[Asus4] [A] [E] [A]  
Amaj9 Amaj8 A6 A
Mamunia Mamunia Mamunia, Oh oh oh
[Asus4]Mamunia [A]Mamunia, [E]oh oh oh [A]oh
Amaj9 Amaj8 A6 A
Mamunia Mamunia Mamunia, Oh oh oh
[Asus4]Mamunia [A]Mamunia, [E]oh oh oh [A]oh
The [C]rain comes [C/B]falling [Am]from the [Am/G]sky,
To [Am/F#]fill the [F]stream that [C]fills the [C/G]sea
Am/F[C]# Riff 1[C/B] [Am] [Am/G]
And that's where life began for you and me
So the [C]next time [C/B]you see [Am]rain it [Am/G]ain't bad,
[Am/F#]Don't com[F]plain it [C]rains for [C/G]you,
The [C]next time [C/B]you see [Am]L.A [Am/G]rainclouds,
[Am/F#]Don't com[F]plain it [C]rains for [C/G]you and [C]me[C/B]
Amaj9 Amaj8 A6 A
Mamunia Mamunia Mamunia, Oh oh oh
[Asus4]Mamunia [A]Mamunia, [E]oh oh oh [A]oh
Amaj9 Amaj8 A6 A
Mamunia Mamunia Mamunia, Oh oh oh
[Asus4]Mamunia [A]Mamunia, [E]oh oh oh [A]oh
[C]It might have [C/B]been a [Am]bright blue [Am/G]day
But [Am/F#]rainclouds [F]had to [C]come this [C/G]way
Am/F# [C]Riff[C/B] [Am] [Am/G]
They're watering everything that they can see.
A [C]seed is [C/B]waiting [Am]in the [Am/G]earth
For [Am/F#]rain to [F]come and [C]give him [C/G]birth,
C C/B Am AmG Am/F# Am/F# Riff
it's all he really needs to set him free
So the [C]next time [C/B]you see [Am]l.a. [Am/G]rainclouds
Am/F# Am/F# Riff
Don't complain, it rains for you.
So [G]lay down your um[C]brellas
[E]Strip off your plastic [Am]macs.
[D]You've never felt the rain my friend,
Till you've [Dm]felt it running down your [G7]back
So the [C]next time [C/B]you see [Am]rain, it [Am/G]ain't bad
[Am/F#]Don't com[F]plain, it [C]rains for [C/G]you.
The [C]next time [C/B]you see [Am]l.a. [Am/G]rainclouds
[Am/F#]Don't com[F]plain it [C]rains for [C/G]you and [C]me.[C/B]
Amaj9 Amaj8 A6 A
Mamunia Mamunia Mamunia, Oh oh oh
[Asus4]Mamunia [A]Mamunia, [E]oh oh oh [A]oh
Amaj9 Amaj8 A6 A
Mamunia Mamunia Mamunia, Oh oh oh
[Asus4]Mamunia [A]Mamunia, [E]oh oh oh [A]oh
Amaj9 Amaj8 A6 A
Mamunia Mamunia Mamunia, Oh oh oh
[Asus4]Mamunia [A]Mamunia, [E]oh oh oh [A]oh
Amaj9 Amaj8 A6 A
Mamunia Mamunia Mamunia, Oh oh oh
[Asus4]Mamunia [A]Mamunia, [E]oh oh oh [A]oh
Riff
 
 E |-----------|--------|
 B |-----------|--------|
 G |-----------|--------|
 D |-----------|--------|
 A |---------0-|--------|
 E |--1--3-----|--1--3--|
 --------------------------------------------------------------------------------

Wings
No Words
(Laine)
Intro:
Guitar 1
[A] [A7] [Em] [F#m]  
 
 E|--0---------------|--0---------------|--0---------------|--2---------|
 B|--2---------------|--2---------------|--0---------------|--2---------|
 G|--2---------------|--0---------------|--0---------------|--3---------|
 D|--2---------------|--2---------------|--2---------------|--4---------|
 A|--0---------------|--0---------------|--2---------------|--4---------|
 E|------------------|------------------|--0---------------|--2---------|

Guitar 2
 
 E|----------------0-|----------------0-|------------------|------------|
 B|--------2~--2h3---|-----2-2~---2h3---|-------0~--0h2h3--|--2~--------|
 G|------2---2-------|------------------|-----2------------|------------|
 D|----2-------------|------------------|------------------|------------|
 A|--0---------------|------------------|------------------|------------|
 E|------------------|------------------|------------------|------------|

Guitar 1
Bm (N/C) E A
 
 E|-----2--------|-----------|--0----------|--0------------------------|
 B|-----3--------|-----------|--0----------|--2------------------------|
 G|-----4--------|-----------|--1----------|--2------------------------|
 D|-----4--------|-----------|--2----------|--2------------------------|
 A|-----2--------|-----------|--2----------|--0------------------------|
 E|--------------|-----------|--0----------|---------------------------|

Guitar 2
 
 E|-----2-2--2~--|-----2--0--|------0------|---------------------------|
 B|--3--3-3--3~--|--3--3--2--|--3~--2--3/--|--2~-----------------------|
 G|--------------|-----1-----|--4~-----4/--|--2~-----------------------|
 D|--------------|-----------|-------------|---------------------------|
 A|--------------|-----------|-------------|---------------0--2--0-----|
 E|--------------|-----------|-------------|---------0--2-----------2--|

Guitar 1
[A] [A7] [Em] [F#m]  
 
 E|--0---------------------0--------------0-------------2---------------|
 B|--2---------------------2--------------0-------------2---------------|
 G|--2---------------------0--------------0-------------2---------------|
 D|--2---------------------2--------------2-------------4---------------|
 A|--0---------------------0--------------2-------------4---------------|
 E|---------------------------------------0-------------2---------------|

You want to give your love away, And end up giving nothing
[Bm] [E] [A]  
 
 E|------2-------------------4----0-----0---------0----------------------------|
 B|------3-------------------3----2-----0---------2----------------------------|
 G|------4------------------------------1---------2----------------------------|
 D|------4------------------------------2---------2----------------------------|
 A|------2------------------------------2---------0----------------0--2--0-----|
 E|-------------------------------------0--------------------0--2-----------2--|

I'm not surprised, that your black eyes, are gazing.
[A] [A7] [Em] [F#m]  
 
 E|--0--------------------0---------------0----------------2---------------|
 B|--2--------------------2---------------0----------------2---------------|
 G|--2--------------------0---------------0----------------2---------------|
 D|--2--------------------2---------------2----------------4---------------|
 A|--0--------------------0---------------2----------------4---------------|
 E|---------------------------------------0----------------2---------------|

You say that love is everything, And what we need the most of
[Bm] [E] [A]  
 
 E|----2---------------------4----0---0--------0----------------------------|
 B|----3---------------------3----2---0--------2----------------------------|
 G|----4------------------------------1--------2----------------------------|
 D|----4------------------------------2--------2----------------------------|
 A|----2------------------------------2--------0----------------------------|
 E|-----------------------------------0-------------------------------------|

I wish you knew, that's just how true, my love was.
Pre-Chorus:
Guitar 1
[E] [E] [C#] 
[F#m]  
 
 E|--0---------------|--0---------------|--1-----------------------|--2----------|
 B|--0---------------|--0---------------|--2-----------------------|--2----------|
 G|--1---------------|--1---------------|--1-----------------------|--2----------|
 D|--2---------------|--2---------------|--3-----------------------|--4----------|
 A|--2---------------|--2---------------|--4-----------------------|--4----------|
 E|--0---------------|--0---------------|--------------------------|--2----------|

Guitar 2
 
 E|-------------------|-----4/--5--5--4--|---1/--4/--7--7--7----|--7/-5h4h5/--2~-|
 B|-----5/--7--7---5--|---5--------------|-2--------------------|----------------|
 G|---4---------------|-4----------------|----------------------|----------------|
 D|-6-----------------|------------------|----------------------|----------------|
 A|-------------------|------------------|----------------------|----------------|
 E|-------------------|------------------|----------------------|----------------|

Chorus:
 
 E|----2--------0-----------------|
 B|----3--------2-----------------|
 G|----2--------2-----------------|
 D|----0--------2-----------------|
 A|-------------0-----------------|
 E|-------------------------------|

No words for my
Guitar 1
[E] [E] [C#] [F#m]  
 
 E|--0---------------|--0---------------|--1------------------|--2----------|
 B|--0---------------|--0---------------|--2------------------|--2----------|
 G|--1---------------|--1---------------|--1------------------|--2----------|
 D|--2---------------|--2---------------|--3------------------|--4----------|
 A|--2---------------|--2---------------|--4------------------|--4----------|
 E|--0---------------|--0---------------|---------------------|--2----------|

love
 
 E|-------------------|-----4/--5--5--4--|---1/4/--10--9--7/--|--5h4h5/--2~-|
 B|-----5/--7--7---5--|---5--------------|-2------------------|-------------|
 G|---4---------------|-4----------------|--------------------|-------------|
 D|-6-----------------|------------------|--------------------|-------------|
 A|-------------------|------------------|--------------------|-------------|
 E|-------------------|------------------|--------------------|-------------|

Verso 2:
Guitar 1
[A] [A7] [Em] [F#m]  
 
 E|--0--------------------0-------------------0-----------------2---------------|
 B|--2--------------------2-------------------0-----------------2---------------|
 G|--2--------------------0-------------------0-----------------2---------------|
 D|--2--------------------2-------------------2-----------------4---------------|
 A|--0--------------------0-------------------2-----------------4---------------|
 E|-------------------------------------------0-----------------2---------------|

You're burning love, sweet burning love, It's deep inside, You mustn't
[Bm] [E] [A]  
 
 E|---2------------------------0-------------------0-----------------|
 B|---3------------------------0-------------------2-----------------|
 G|---4------------------------1-------------------2-----------------|
 D|---4------------------------2-------------------2-----------------|
 A|---2------------------------2-------------------0-----------------|
 E|----------------------------0-------------------------------------|

hide, your burning love, Sweet burning love, your burning love.
[A] [A7] [Em] [F#m]  
 
 E|--0---------------------0--------------0------------------2-------------|
 B|--2---------------------2--------------0------------------2-------------|
 G|--2---------------------0--------------0------------------2-------------|
 D|--2---------------------2--------------2------------------4-------------|
 A|--0---------------------0--------------2------------------4-------------|
 E|---------------------------------------0------------------2-------------|

You want to turn your head away, And someone's thinking of you
[Bm] [E] [A]  
 
 E|----2--------------------4--0-0----0----------------------------|
 B|----3--------------------3--2-0----2----------------------------|
 G|----4-------------------------1----2----------------------------|
 D|----4-------------------------2----2----------------------------|
 A|----2-------------------------2----0----------------------------|
 E|------------------------------0---------------------------------|

I wish you'd see, it's only me,I love you.
Pre-Chorus:
Guitar 1
[E] [E] [C#] 
[F#m]  
 
 E|--0---------------|--0---------------|--1-----------------------|--2----------|
 B|--0---------------|--0---------------|--2-----------------------|--2----------|
 G|--1---------------|--1---------------|--1-----------------------|--2----------|
 D|--2---------------|--2---------------|--3-----------------------|--4----------|
 A|--2---------------|--2---------------|--4-----------------------|--4----------|
 E|--0---------------|--0---------------|--------------------------|--2----------|

Guitar 2
 
 E|-------------------|-----4/--5--5--4--|---1/--4/--7--7--7----|--7/-5h4h5/--2~-|
 B|-----5/--7--7---5--|---5--------------|-2--------------------|----------------|
 G|---4---------------|-4----------------|----------------------|----------------|
 D|-6-----------------|------------------|----------------------|----------------|
 A|-------------------|------------------|----------------------|----------------|
 E|-------------------|------------------|----------------------|----------------|

Chorus:
 
 E|----2--------0-----------------|
 B|----3--------2-----------------|
 G|----2--------2-----------------|
 D|----0--------2-----------------|
 A|-------------0-----------------|
 E|-------------------------------|

No words for my
Guitar 1
[E] [E] [C#] [F#m]  
 
 E|--0---------------|--0---------------|--1------------------|--2----------|
 B|--0---------------|--0---------------|--2------------------|--2----------|
 G|--1---------------|--1---------------|--1------------------|--2----------|
 D|--2---------------|--2---------------|--3------------------|--4----------|
 A|--2---------------|--2---------------|--4------------------|--4----------|
 E|--0---------------|--0---------------|---------------------|--2----------|

love
Guitar 2
 
 E|-------------------|-----4/--5--5--4--|---1/4/--10--9--7/--|--5h4h5/--2~-|
 B|-----5/--7--7---5--|---5--------------|-2------------------|-------------|
 G|---4---------------|-4----------------|--------------------|-------------|
 D|-6-----------------|------------------|--------------------|-------------|
 A|-------------------|------------------|--------------------|-------------|
 E|-------------------|------------------|--------------------|-------------|

Solo:
Guitar 1
[Bm] [/] [/] [/] [/] [E] [/] [/] [/] [/] [Bm] [/] [/] [/] [/]  
 
 E|--2-------------|--0-------------|--2-------------|
 B|--3-------------|--0-------------|--3-------------|
 G|--4-------------|--1-------------|--4-------------|
 D|--4-------------|--2-------------|--4-------------|
 A|--2-------------|--2-------------|--2-------------|
 E|----------------|--0-------------|----------------|

Guitar 2
 
 E|----------------|-------/7-------|----------------|
 B|--5b7-----------|-----------7-7--|--7~------------|
 G|----------------|----------------|----------------|
 D|----------------|----------------|----------------|
 A|----------------|----------------|----------------|
 E|----------------|----------------|----------------|

Guitar 1
[E] [/] [/] [/] [/] [Bm] [/] [/] [/] [/] 
 
 E|--0--------------------------------------|--2-----------------------------|
 B|--0--------------------------------------|--3-----------------------------|
 G|--1--------------------------------------|--4-----------------------------|
 D|--2--------------------------------------|--4-----------------------------|
 A|--2--------------------------------------|--2-----------------------------|
 E|--0--------------------------------------|--------------------------------|

Guitar 2
 
 E|--/7-7-7-7--/7-7-7-7--/7-7-7-5-----------|-------------------------------|
 B|-------------------------------7-5----5--|-------------3-5b7r------------|
 G|------------------------------------7----|--7~---4-2-4-------------------|
 D|-----------------------------------------|-------------------------------|
 A|-----------------------------------------|-------------------------------|
 E|-----------------------------------------|-------------------------------|

Guitar 1
[E] [/] [/] [/] [/] [Bm] [/] [/] [/] [/] [E] [/] [/] [/] [/]  
 
 E|--0------------|--2--------------------|--0-------------------------------|
 B|--0------------|--3--------------------|--0-------------------------------|
 G|--1------------|--4--------------------|--1-------------------------------|
 D|--2------------|--4--------------------|--2-------------------------------|
 A|--2------------|--2--------------------|--2-------------------------------|
 E|--0------------|-----------------------|--0-------------------------------|

Guitar 2
 
 E|-----3/--12----|-----------------------|-------------------------------|
 B|--5~-----------|--12--10h12--10----12~-|--12-12-12-12-10-------12------|
 G|---------------|----------------11-----|-----------------10-11-9-------|
 D|---------------|-----------------------|-------------------------------|
 A|---------------|-----------------------|-------------------------------|
 E|---------------|-----------------------|-------------------------------|

Guitar 1
[Bm] [/] [/] [/] [/] [E] [/] [/] [/] [/]  
 
 E|--2---------------------|--0--------------------------------------------|
 B|--3---------------------|--0--------------------------------------------|
 G|--4---------------------|--1--------------------------------------------|
 D|--4---------------------|--2--------------------------------------------|
 A|--2---------------------|--2--------------------------------------------|
 E|------------------------|--0--------------------------------------------|

Guitar 2
 
 E|--7---------------------|-----7---------------------------------------|
 B|--7--5--7-7--7-7--7-7---|--7------------7-----------------------------|
 G|------------------------|------------9--------------------------------|
 D|------------------------|----------9----------------------------------|
 A|------------------------|---------------------------------------------|
 E|------------------------|---------------------------------------------|
 --------------------------------------------------------------------------------

Chords:
G: [EADGBE]320003
Bm: x24432
D: xx0232
F: 133211
Am: x02210
Am7: x02010
Bbo: xx2323
Eb7: xx1323
Ab: xx1114
F7: xx3545
Bb: xx3336
G7: xx5767
[G]A grand old pa[D]inter di[F]ed last ni[G]ght
His paintings on the w[D]all
Bef[Am]ore he went, he bade us well
And s[D]aid goodnight to us a[G]ll
[G]Drink to[Bm] me, d[Em]rink to my he[Am7]alth
You k[G]now I can't dr[D]ink anymo[G]re[D]
Drink to me, drink to my health
You k[G]now I can't d[D]rink anymo[C]re[G]
[Bm]Three o'clock in the m[Em]orning
[Bm]I'm getting ready for [Em]bed
[Am]It came without a w[G]arning
But I'll be w[Bm]aiting for you, baby
I'll be w[Am]aiting for you th[D]ere
So [G]drink to [Bm]me, [Em]drink to my [Am7]health
You [G]know I can't [D]drink any[G]more[D]
[G]Drink to [Bm]me, [Em]drink to my [Am7]health
G F C G Bbo Am D
You know I can't drink anymore
INTERLUDE: Eb7 Ab Eb7 Ab F7 Bb
[F7] [Bb] [G7]  
Bm D6 Bm D6 A (Jet)
[G]Drink to [Bm]me, [Em]drink to my [Am7]health
You k[G]now I can't dr[D]ink anymo[G]re[D]
[G]Drink to [Bm]me, [Em]drink to my [Am7]health
You k[G]now I can't d[D]rink anymo[C]re[G]
[Bm] [Em] [Bm] [Em] [Am] [G] [Bm]  
[D]  
[G]Drink to [Bm]me, [Em]drink to my [Am7]health
You k[G]now I can't dr[D]ink anymo[G]re[D]
[G]Drink to [Bm]me, [Em]drink to my [Am7]health
You k[G]now I can't d[D]rink anymo[C]re[G]
INTERLUDE
[Em]Oh [Am]oh
O oh
[G]Drink to [Bm]me, [Em]drink to my [Am7]health
You [G]know I-
Ho hey ho
Ho hey ho
 
 --------------------------------------------------------------------------------

Wings
Nineteen Hundred And Eighty Five
(McCartney)
Chords used:
(you could use a capo at first fret)
Cm7: x35343
Eb: xx5343
Cm: x35543
Ab: 466544
Bb: 688766
G: 355433
 
 Dbm: 9-11-11-9-9-9---|
 Gdim: x-10-11-9-11-9--|
 G*: x-10-12-12-12-x-|

[Cm7] [Eb] [Cm7] [Eb] [Cm7] [Ab] [Cm] [Cm7]  
Oh [Eb]no one ever left alive in nineteen hundred and eighty five will [Cm]ever do
She [Eb]may be right, she may be fine
She may get love but she won't get mine cos [Cm]I got you
Oh [Ab]I, Oh [Cm]I
Well I [Cm7]just can't get enough of that sweet stuff
My little lady gets behind
Cm Bb Ab G (x2) Cm
[Dbm] [Ab] [Cm] [Gdim]  
[Cm7]  
Oh my [Eb]mama said the time would come when I would find myself in love with [Cm]you
I [Eb]didn't think, I never dreamed
That I would be around to see it [Cm]all come true
Woh [Ab]I, Oh [Cm]I
Well I [Cm7]just can't get enough of that sweet stuff my little lady gets behind
[Dbm] [Ab] [Cm] [Gdim]  
[Cm7]  
Oh [Eb]no one ever left alive in nineteen hundred and eighty five will ever do
She [Eb]may be right, she may be fine
She may get love but she won't get mine cos [Cm]I got you
Oh [Ab]I, Oh [Cm]I
Well I [Cm7]just can't get enough of that sweet stuff
My little lady gets behind
Cm Bb Ab G (x11)
| C B G# | C B G# | C
G# | C B G# | C (big orchestral bit)
G*
[C] [Fmaj7] [C] [Fmaj7] [C] [Fmaj7]  
Ba[Fmaj7]nd on t[C]he ru[Fmaj7]n, [C] Ba[Fmaj7]nd on the run, Band on the run,
[C] [Fmaj7] [C] [Fmaj7] [C] [Fmaj7]  
Ba[Fmaj7]nd on the run, Band on the run,
 
 --------------------------------------------------------------------------------

Wings
Helen Wheels
(McCartney)
[A]Said farewell to my last hotel
It was never much kind of abode
Glasgow town never brought me down
When I was heading out on the road
Carlisle City never looked so pretty
And the Kendal freeway's fast
Slow down driver, want to stay alive
I want to make this journey last
[A]Helen - hell on wheels
Ain't nobody else gonna know the way she feels
Helen - hell on wheels
And they [E]never gonna take her away
[A]M6 south down to Liverpool
Where they play the West Coast sound
Sailor Sam, he came from Birmingham
But he never will be found
Doing fine when a London sign
Greets me like a long lost friend
Mister Motor won't you check her out
She's got to take me back again
[A]Helen - hell on wheels
Ain't nobody else gonna know the way she feels
Helen - hell on wheels
And they [E]never gonna take her away
[A]Got no time for a rum and lime
I wanna get my right foot down
Shake some dust off of this old bus
I gotta get her out of town
Spend the day upon the motorway
Where the carburettors blast
Slow down driver, I wanna stay alive
I want to make this journey last
[A]Helen - hell on wheels
Ain't nobody else gonna know the way she feels
Helen - hell on wheels
And they [E]never gonna take her away
 
 --------------------------------------------------------------------------------

Wings
Country Dreamer
(McCartney)
[C]I'd like to [F]walk in a [C]field with you,
[G7]take my [F]hat and my [C]boots off [G7]too.
[C]I'd like to [F]lie in a [C]field with [A7]you.
[D7]Would you [G7]like to do it [C]too, [A7]May?
[D7]Would you [G7]like to do it [C]too?[G7]
[C]I like to [F]stand in the [C]stream with you,
[G7]roll my [F]trousers up and [C]not feel [G7]blue.
[C]I'd like to [F]wash in a [C]stream with [A7]you.
[D7]Would you [G7]like to do it [C]too?
[Am]You and I, country [G]dreamer,
[F]when there's nothing else to [C]do;
[Am]Me oh my, country [G]dreamer,
[F]make a country dream come [G]true.
I'd like to climb up a hill with you,
stand on top and admire the view.
I'd like to roll down a hill with you.
Would you like to do it too, May?
Would you like to do it too?
You and I, country dreamer,
when there's nothing else to do;
Me oh my, country dreamer,
make a country dream come true.
I'd like to climb up a hill with you,
take my hat and my boots off too.
I'd like to lie in a field with you.
Would you like to do it too, May?
[D7]Would you [G7]like to do it [C]too, [A7]May?
[D7]Would you [G7]like to do it [F]too?[C]
 
 --------------------------------------------------------------------------------

Any Thing Sends some commentary to:Lea_1705@Hotmail.com

Important: The song above is NOT stored on the Chordie server. The original song is hosted at www.guitaretab.com. Chordie works as a search engine and provides on-the-fly formatting. Chordie does not index songs against artists'/composers' will. To remove this song please click here.

Text color:
Chord color:
Chord grids: 
Font size:    
Page size: 

A A7 Ab Ab6 Am Am/F# Am7 Asus4 B5 Bb Bb6 Bm C C# C#5 C#m7 C/B C/G Cm Cm/Bb Cm7 D D6 D7 Dbm Dm Dm/C Dm6 Dm7 Dmaj7 E E7 Eb Ebmaj7 Em Em7 F F#m F7 Fm Fmaj7 G G7 Gdim Gm
Rate #1 of 15 versions

Login - add to songbook

SHARE PAGE  




You need to log in to post comments