Guitar Tabs, Chords and Lyrics
Login is temporarily disabled for some users. Do not panic. Will be back in an hour or two. DO NOT REREGISTER!!


Girlfriend  Wings

 
 ---------------------------------------------------------------------------

Girlfriend ? Wings
 
 ---------------------------------------------------------------------------

Tabbed by: maguri
Tuning: Standard
Girlfriend
(McCartney)
From: "London Town" (1978)
A very beautiful song. The middle part, I called it "Solo/Instrumental" here, seems somehow
out of place, though. As I see it, McCartney wanted just a little t o o much
here. Michael Jackson
covered the song on his "Off the Wall" album (nice version, too!), turned the arrangement 100% pop
and consequently left out this part. I usually do so, too.
 
 ---------------------------------------------------------------------------

GUITAR PARTS
Intro
Ac[G]oustic[G6] [G] [Am(7)] [Am7]
 
 e|3-----0---------|----------0-3/5-|3-----0-----0---|----------------|
 B|0-----0---------|--------3-------|1-----1-----1---|----------------|
 G|0-----0---------|--------0-------|2-----2-----2---|----------------|
 D|----------------|--------0-------|----------------|----------------|
 A|----------------|----------------|----------------|----------------|
 E|3-------------3-|3-------3-------|0---------------|----------------|

Electric
 
 e|----------------|----------------|------3---------|----------------|
 B|----------------|----------------|4/5---------5---|3/5-------------|
 G|----------------|----------------|--------------4-|------4--------4|
 D|----------------|----------------|----------------|--------------5-|
 A|----------------|----------------|----------------|----------------|
 E|----------------|----------------|----------------|----------------|

Ac[Em7-b5/Bb]oustic (continued)
 
 e|----------------|
 B|----------------|
 G|----------------|
 D|----------------|
 A|----------------|
 E|----------------|

Electric (continued)
 
 e|----------------|
 B|----------------|
 G|3----/12--------|
 D|----------------|
 A|----------------|
 E|----------------|

Interlude
[Eb] [G] [D] [G] [Eb] [G] [D] [G]  
 
 e|------3---------|----------------|------3---------|----------------|
 B|4/5---------5---|3/5-------------|4/5---------5---|3/5-------------|
 G|--------------4-|------4---------|--------------4-|----------------|
 D|----------------|----------------|----------------|----5-----------|
 A|----------------|----------------|----------------|----------------|
 E|----------------|----------------|----------------|----------------|

Coda link
[Am(7)] [Am(7)] [Em7-b5/Bb]  
 
 e|------3---------|----------------|----------------|
 B|4/5---------5---|3/5-------------|----------------|
 G|--------------4-|------4--------4|3----/12--------|
 D|----------------|--------------5-|----------------|
 A|----------------|----------------|----------------|
 E|----------------|----------------|----------------|
 ---------------------------------------------------------------------------

CHORD
e-B-G-D-A-E
 
 Em7-b5/Bb 3-3-3-2-1-x

I'm not quite sure how to call this monster.
Is it rather a Bb6/b5?
 
 ---------------------------------------------------------------------------

SONG
Intro: | G G6 | G | Am(7) | Am(7) | Em7-b5/Bb |
[G]Girl[G6]friend, [G] I'm gonna tell your [Am]boyfriend, [C/D]yeah
[G]Tell [G6]him [G] exactly what you're [Am]doing, [C/D]yeah
[G]Tell him what you do to [Em]me
Am F | Fm Fm7 Fm6 Fm |
Late at night when the wind is free
G G6 | Eb G | D G | Eb G | D G |
Girlfriend (Interlude)
[G]Girl[G6]friend, [G] I'm gonna show your [Am]boyfriend, [C/D]yeah
[G]Show[G6] him [G] the letters I've been [Am]saving, [C/D]yeah
[G]Show him how you feel in[Em]side
Am F | Fm Fm7 Fm6 Fm |
Then our love couldn't be denied
And we're [Em]gonna have to tell him
Am |Am C(stop) |
 
 You'll only be a girlfriend A|--0-0233-------| 

of [G]mine. Do do do do, [Am(7)]do do do do do do do [G]do
Do do do do, [Am(7)]do do do do do do do [G]do
Do do do do
[Eb]Till the [G]river [D]stops a-[G]flowin'
[Eb]Till the [G]wind doesn't [D]wanna [G]blow
[Eb]Till the [G]flowers [D]stop a-g[G]rowin'
[Eb]Till my [G]love doesn't [D]wanna kn[G]ow
| A A6 | A | Bm E | Am | E/G# | F | F |
(Solo/Instrumental)
| Am | E/G# | Am Em | F | Fm Fm7 Fm6 Fm |
(Solo/Instrumental)
We're [Em]gonna have to tell him
Am |Am C(stop) |
 
 You'll only be a girlfriend A|--0-0233-------| 

of [G]mine.
[G]Girl[G6]friend, [G]we'd better tell your [Am]boyfriend, [C/D]yeah
[G]Tell [G6]him [G] exactly what we're [Am]doing, [C/D]yeah
[G]Tell him what he needs to [Em]know
Or he [Am]may never let you g[F]o[Fm7] [Fm6] [Fm]
Yes we're [Em]gonna have to tell him
Am |Am C(stop) |
 
 You'll only be a girlfriend A|--0-0233--------| 

of [G]mine. Do do do do, [Am(7)]do do do do do do do d[G]o
Do do do do, [Am(7)]do do do do do do do d[G]o
Do do do do, [Am(7)]do do do do do do do d[G]o (repeat)
Do do do do [Am(7)] Till the river [G]stop a-flowin'
(do do do do[Am(7)]) Till the wind doesn't [G]wanna blow
(do do do do[Am(7)]) Till the flowers [G]stop a-growin'
(do do do do[Am(7)]) Till the ocean's a [G]sea of snow (sea of snow, [Am(7)]sea of snow ?)
[G] Do do do do, [Am(7)]do do do do do do do do [G]
Do do do do, [Am(7)]do do do do do do do do [G]
| Am(7) | Am(7) | Em7-b5/Bb |
Do do do do, (Coda link)
[G]Girl[G6]friend[G]
 
 ---------------------------------------------------------------------------


Important: The song above is NOT stored on the Chordie server. The original song is hosted at www.guitaretab.com. Chordie works as a search engine and provides on-the-fly formatting. Chordie does not index songs against artists'/composers' will. To remove this song please click here.

Text color:
Chord color:
Chord grids: 
Font size:    
Page size: 

Am Am7 C/D D Eb Em F Fm Fm6 Fm7 G G6
Rate #1 of 2 versions

Jango Player

Login - add to songbook

SHARE PAGE  




You need to log in to post comments