Guitar Tabs, Chords and Lyrics
Server problems seems to be fixed. Chordie has been experiencing problems with songs disappearing. These issues now seems to be fixed, but still verifying the fix. If you find anything strange, please email admin@chordie.com.


Mamunia  Wings

 
 ---------------------------------------------------------------------------

Mamunia - Paul McCartney and Wings
 
 ---------------------------------------------------------------------------

Tabbed by: maguri
Tuning: Standard
Paul McCartney and Wings
[Mamunia](McCartn[(1973)]ey)
From: Band on the Run
INTRO
[A] [Amaj7] [A6] [A]  
 
 e|5---------------|4---------------|2---------------|----------------|
 B|----------2-----|----------2-----|----------2-----|5---------------|
 G|------2---------|------2---------|------2---------|----------2-----|
 D|----2-------2---|----2-------2---|----2-------2---|----2-------2---|
 A|0-------0-------|0-------0-------|0-------0-------|0-------0-------|
 E|----------------|----------------|----------------|----------------|

[Asus4] [A] [E] [A]  
 
 e|----------------|----------------|----------------|----------------|
 B|3---------3-----|2---------2-----|0---------0-----|----------------|
 G|------2---------|------2---------|------1---------|2---------2-----|
 D|----2-------2---|----2-------2---|----2-------2---|----2-------2---|
 A|0-------0-------|0-------0-------|----------------|0-------0-------|
 E|----------------|----------------|0-------0-------|----------------|

[A] [Amaj7] [A6] [A]  
 
 e|5---------------|4---------------|2---------------|----------2-----|
 B|----------2-----|----------2-----|----------2-----|5-----------5---|
 G|------2---------|------2---------|------2---------|------2---------|
 D|----2-------2---|----2-------2---|----2-------2---|----2-------2---|
 A|0-------0-------|0-------0-------|0-------0-------|0-------0-------|
 E|----------------|----------------|----------------|----------------|

Mamunia Mamunia Mamunia Oh oh oh
[Asus4] [A] [E] [A]  
 
 e|----------------|----------------|----------------|----------------|
 B|3---------3-----|2---------2-----|0---------0-----|----------------|
 G|------2---------|------2---------|------1---------|2---------2-----|
 D|----2-------2---|----2-------2---|----2-------2---|----2-------2---|
 A|0-------0-------|0-------0-------|----------------|0-------0-------|
 E|----------------|----------------|0-------0-------|----------------|

Mamunia Mamunia Mamunia Oh oh oh oh oh
[E] [Esus4] [E] [E6]  
 
 e|----------------|----------------|----------------|----------------|
 B|----------------|----------------|0---------0-----|2---------2-----|
 G|1---------1-----|2---------2-----|------1---------|------1---------|
 D|----2-------2---|----2-------2---|----2-------2---|----2-------2---|
 A|----------------|----------------|----------------|----------------|
 E|0-------0-------|0-------0-------|0-------0-------|0-------0-------|

(Moog)
[D/A] [Dadd9/A] [D/A] [E]  
 
 e|----------------|0---------0-----|2---------2-----|4---------4-----|
 B|3---------3-----|----------------|----------------|----------------|
 G|------2---------|------2---------|------2---------|------4---------|
 D|----0-------0---|----0-------0---|----0-------0---|----2-------2---|
 A|0-------0-------|0-------0-------|0-------0-------|----------------|
 E|----------------|----------------|----------------|0-------0-------

(Moog)
[A] [Amaj7] [A6] [A]  
 
 e|5---------------|4---------------|2---------------|----------2-----|
 B|----------2-----|----------2-----|----------2-----|5-----------5---|
 G|------2---------|------2---------|------2---------|------2---------|
 D|----2-------2---|----2-------2---|----2-------2---|----2-------2---|
 A|0-------0-------|0-------0-------|0-------0-------|0-------0-------|
 E|----------------|----------------|----------------|----------------|

Mamunia Mamunia Mamunia Oh oh oh
[Asus4] [A] [E] [A]  
 
 e|----------------|----------------|----------------|----------------|
 B|3---------3-----|2---------2-----|0---------0-----|----------------|
 G|------2---------|------2---------|------1---------|2---------2-----|
 D|----2-------2---|----2-------2---|----2-------2---|----2-------2---|
 A|0-------0-------|0-------0-------|----------------|0-------0-------|
 E|----------------|----------------|0-------0-------|----------------|

Mamunia Mamunia Mamunia Oh oh oh oh oh
[A]  
 
 e|----------------|----------------|
 B|------2---------|------2---------|
 G|/2----------2---|(2)---------2---|
 D|/2--------------|----------------|
 A|0---------------|0---------------|
 E|----------------|----------------|
 ---------------------------------------------------------------------------

CHORDS
e-B-G-D-A-E
A 5-2-2-2-0-x
Amaj7 4-2-2-2-0-x
A6 2-2-2-2-0-x
D/F# 2-3-2-0-x-2
Dm(add9)/F 0-3-2-3-x-1
C/B 0-1-0-x-2-x
 
 ---------------------------------------------------------------------------

INTRO
| A | Amaj7 | A6 | A | D/A | A | E | A |
[A]Mamunia [Amaj7]mamunia [A6]mamunia [A]oh oh oh
[Asus4]Mamunia [A]mamunia [E]oh oh oh [A]oh
| E | Esus4 | E | E6 | D/A | Dadd9/A | D | E |
(Moog)
[A]Mamunia [Amaj7]mamunia [A6]mamunia [A]oh oh oh
[Asus4]Mamunia [A]mamunia [E]oh oh oh [A]oh
[C]The rain comes [C/B]falling [Am]from the [Am/G]sky,
To [D/F#]fill the [Dm(add9)/F]stream that [C]fills the [C/G]sea
[C]And that's where [C]li[/B]fe
[Am] [Am/G] [D/F#] [F]  
 
 began for you and me A|----0-----------|
 E|1-3-------1-3---|

So the [C]next time [C/B]you see [Am]rain it [Am/G]ain't bad,
[D/F#]Don't comp[Dm/F]lain it [C]rains for [C/G]you,
The [C]next time y[C/B]ou see [Am]L.A. [Am/G]rainclouds,
[D/F#]Don't complain it [F]rains for you and [C]me[C/B]
[A]Mamunia [Amaj7]mamunia [A6]mamunia [A]oh oh oh
[Asus4]Mamunia [A]mamunia [E]oh oh oh [A]oh
[A]Mamunia [Amaj7]mamunia [A6]mamunia [A]oh oh oh
[Asus4]Mamunia [A]mamunia [E]oh oh oh [A]oh
[C]It might have [C/B]been a [Am]bright blue [Am/G]day but
[D/F#]Rainclouds [Dm/F]had to [C]come this [C/G]way
They're [C]watering [C/B]every[Am]thing
[Am/G] [D/F#] [F]  
 
 that they can see. A|----0-----------|
 E|1-3-------1-3---|

A [C]seed is [C/B]waiting [Am]in the [Am/G]earth
For [D/F#]rain to [Dm/F]come and [C]give him [C/G]birth,
It's [C]all he [C/B]really [Am]needs
[Am/G] [D/F#] [F]  
 
 to set him free A|----0-----------|
 E|1-3-------1-3---|

So the [C]next time [C/B]you see [Am]rain it [Am/G]ain't bad,
[D/F#]Don't complain it [F]rains for you,
 
 A|----0-----------|
 E|1-3-------1-3---|

So [G]lay down your umbr[C]ellas
[E]Strip off your plastic [Am]macs.
[D]You've never felt the rain my friend,
Till you've [Dm7]felt it running down your [G]back
So the [C]next time [C/B]you see [Am]rain it [Am/G]ain't bad,
[D/F#]Don't comp[Dm/F]lain it [C]rains for [C/G]you,
The [C]next time y[C/B]ou see [Am]L.A. [Am/G]rainclouds,
[D/F#]Don't complain it [F]rains for you and [C]me[C/B]
[A]Mamunia [Amaj7]mamunia [A6]mamunia [A]oh oh oh
[Asus4]Mamunia [A]mamunia [E]oh oh oh [A]oh
[A]Mamunia [Amaj7]mamunia [A6]mamunia [A]oh oh oh
[Asus4]Mamunia [A]mamunia [E]oh oh oh [A]oh
| E | Esus4 | E | E6 | D/A | Dadd9/A | D | E |
(Moog)
[A]Mamunia [Amaj7]mamunia [A6]mamunia [A]oh oh oh
[Asus4]Mamunia [A]mamunia [E]oh oh oh [A]oh

Important: The song above is NOT stored on the Chordie server. The original song is hosted at www.guitaretab.com. Chordie works as a search engine and provides on-the-fly formatting. Chordie does not index songs against artists'/composers' will. To remove this song please click here.

Text color:
Chord color:
Chord grids: 
Font size:    
Page size: 

A A6 Am Amaj7 Asus4 C C/B C/G D D/F# Dadd9/A Dm/F Dm7 E E6 Esus4 F G
Rate #1 of 4 versions

Jango Player

Login - add to songbook

SHARE PAGE  




You need to log in to post comments