Guitar Tabs, Chords and Lyrics
Update 25:10. 13:00. Site is back up running again. Songbooks are recovered. Woring on getting search back up..


Echolot  Wir sind Helden

 
 -------------------------------------------------------------------------------

ECHOLOT - Wir Sind Helden
 
 -------------------------------------------------------------------------------

Tabbed by: Armon Toubman
Email: armont xs4all.nl
Tuning: EADGBe standard
pm palm-muted
/ slide up
b bend
r release
VERSE, PRE-CHORUS (delay)
[G/C] [C/E] [G/B]  
 
 e|---------------------------------------------------------------------------|
 B|---------------------------------------------------------------------------|
 G|-7-7-7-7-7-7-7-7---4-4-4-4-4-4-4-4-----------------------------------------|
 D|-5-5-5-5-5-5-5-5---2-2-2-2-2-2-2-2---5-5-5-5-5-5-5-5---5-5-5-5-5-5-5-5-----|
 A|-------------------------------------3-3-3-3-3-3-3-3---2-2-2-2-2-2-2-2-----|
 E|---------------------------------------------------------------------------|

pmpm pmpm pm pmpm pmpm pm pmpm pmpm pm pmpm pmpm pm
CHORUS: (delay?)
[D] [Em]  
 
 e|-14-14-14-14-14----------15-15-15-15-15------------------------------------|
 B|----------------15-15-15----------------15-15-15---------------------------|
 G|---------------------------------------------------------------------------|
 D|---------------------------------------------------------------------------|
 A|---------------------------------------------------------------------------|
 E|---------------------------------------------------------------------------|

On "wir gehen / Tiefer auf den Grund" end with this:
[C] [C/B]  
 
 e|-14-14-14-14-14----------15-15-15-15-15-15-15-15-15-15-15-15-15-15-15-15---|
 B|----------------15-15-15---------------------------------------------------|
 G|---------------------------------------------------------------------------|
 D|---------------------------------------------------------------------------|
 A|---------------------------------------------------------------------------|
 E|---------------------------------------------------------------------------|

SOLO 1:21 (overdriven)
 
 e|---10-10---10-10-------------10-10---10-10---------------------------|
 B|-----------------5-8-7---------------------5-8-7-10-10---------------|
 G|-7-------7-------------7---7-------7---------------------------------|
 D|---------------------------------------------------------------------|
 A|---------------------------------------------------------------------|
 E|---------------------------------------------------------------------|
 e|---10-10-10---10-10-10-------------10-10-10---10-10-10---------------|
 B|-----------------------5-8-7---------------------------5-8-7-10-10---|
 G|-7----------7----------------7---7----------7------------------------|
 D|---------------------------------------------------------------------|
 A|---------------------------------------------------------------------|
 E|---------------------------------------------------------------------|
 e|---10-10-10---10-10-10-------------10-10-10---10-10-10---------------|
 B|-----------------------5-8-7---------------------------5-8-7-10-10---|
 G|-7----------7----------------7---7----------7------------------------|
 D|---------------------------------------------------------------------|
 A|---------------------------------------------------------------------|
 E|---------------------------------------------------------------------|
 e|---10-10-10---10-10-10-------------10-10-10---10-10-10---------------|
 B|-----------------------5-8-7---------------------------5-8-7---------|
 G|-7----------7----------------7---7----------7----------------7-------|
 D|---------------------------------------------------------------------|
 A|---------------------------------------------------------------------|
 E|---------------------------------------------------------------------|

SOLO 3:20 (overdriven)
 
 e|---10-10---10-10-------------10-10---10-10---------------------------|
 B|-----------------5-8-7---------------------5-8-7-10-10---------------|
 G|-7-------7-------------7---7-------7---------------------------------|
 D|---------------------------------------------------------------------|
 A|---------------------------------------------------------------------|
 E|---------------------------------------------------------------------|
 e|---10-10-10---10-10-10-------------10-10-10---10-10-10---------------|
 B|-----------------------5-8-7---------------------------5-8-7-10-10---|
 G|-7----------7----------------7---7----------7------------------------|
 D|---------------------------------------------------------------------|
 A|---------------------------------------------------------------------|
 E|---------------------------------------------------------------------|
 e|---10-10-10---10-10-10-------------10-10-10---10-10-10---------------|
 B|-----------------------5-8-7---------------------------5-8-7/17------|
 G|-7----------7----------------7---7----------7------------------------|
 D|---------------------------------------------------------------------|
 A|---------------------------------------------------------------------|
 E|---------------------------------------------------------------------|
 e|---22-22---22-22-----------------22-22-22---22-22-22-----------------------|
 B|-----------------17-20-19---------------------------17-17-20-20-19-22b24r22|
 G|-19------19---------------19---19----------19------------------------------|
 D|---------------------------------------------------------------------------|
 A|---------------------------------------------------------------------------|
 E|---------------------------------------------------------------------------|
 e|---22-22-22-----22-22------------------------------------------------------|
 B|-22--------22-22-----22-22-20-20-19-19-------------------------------------|
 G|---------------------------------------19-19-------------------------------|
 D|---------------------------------------------------------------------------|
 A|---------------------------------------------------------------------------|
 E|---------------------------------------------------------------------------|
 e|------22-22-----22-22------------------------------------------------------|
 B|-22-22-----22-22-----22-22-20-20-19-19-------------------------------------|
 G|---------------------------------------19-19-------------------------------|
 D|---------------------------------------------------------------------------|
 A|---------------------------------------------------------------------------|
 E|---------------------------------------------------------------------------|
 e|-------22-22-----22-22-----22-22-----22-22---------------------------------|
 B|-22-22------22-22-----22-22-----22-22--------------------------------------|
 G|---------------------------------------------------------------------------|
 D|---------------------------------------------------------------------------| 4x
 A|---------------------------------------------------------------------------|
 E|---------------------------------------------------------------------------|
 e|-------22------22----------------------------------------------------------|
 B|-22-22---22-22----22b24----------------------------------------------------|
 G|---------------------------------------------------------------------------|
 D|---------------------------------------------------------------------------|
 A|---------------------------------------------------------------------------|
 E|---------------------------------------------------------------------------|

VERSE
Halt still
Das Bett ist ein Floß
und ich will
raus auf´s Meer komm schneid es
los schau
unter uns flüssiges Blei
graue
Schatten ziehen träge vorbei
PRE-CHORUS
Sterne und Wasser
Und wir dazwischen
Komm, wir schwimmen
mit den großen Fischen
CHORUS
Ich seh dein Herz
Dein Echolot
Schlägt Wellen in die See
Ich seh dein Herz
Das bisschen rot
Tut nicht lange weh
Ich seh dein Herz
Bleib noch nicht stehen
Ich häng an deinem Mund
Ich seh dein Herz
Ich weiß wir gehen
Tiefer auf den Grund
SOLO
VERSE
Komm schau
Um uns tanzt glitzernder Staub
Wir
Sinken selig und taub
Stumm wartend und leise
Ziehen Schatten engere Kreise
PRE-CHORUS
Sterne und Wasser
Und wir dazwischen
Komm, wir schwimmen
Mit den großen Fischen
CHORUS
Ich seh dein Herz
Dein Echolot
Schlägt Wellen in die See
Ich seh dein Herz
Das bisschen rot
Tut nicht lange weh
Ich seh dein Herz
Bleib noch nicht stehen
Ich häng an deinem Mund
Ich seh dein Herz
Ich weiß wir gehen
Tiefer auf den Grund
SOLO
===============================================================================

Important: The song above is NOT stored on the Chordie server. The original song is hosted at www.guitaretab.com. Chordie works as a search engine and provides on-the-fly formatting. Chordie does not index songs against artists'/composers' will. To remove this song please click here.

Text color:
Chord color:
Chord grids: 
Font size:    
Page size: 

C C/B C/E D Em G/B G/C
Rate #4 of 4 versions

Jango Player

Login - add to songbook

SHARE PAGE  



You need to log in to post comments