Guitar Tabs, Chords and Lyrics
Major upgrade!! After one year development the new version of Chordie is now online! Please give feedback.


Better Life  3 Doors Down

Band- 3 Doors Down
Album- Better Life
1.KRYPTONITE
Intro#1
 
 e|------------------------------------------------------------------------------|
 B|--------------3-----------------------------------------------------------0---|
 G|*---------4--------4---------0--------------------0-----------------2--------*|
 D|*-----4-----------------4-------------------0-----------------2--------------*|
 A|---2-----------------------------------2----------------0---------------------|
 E|----------------------------------3-------------------------------------------|

Intro#2
 
 e|--------------------------------------------------------------0---------------|
 B|--------------3-----------------------------------------------------2---------|
 G|----------4--------4---------0--------------------0-----------------------2---|
 D|------4-----------------4-------------------0---------------------------------|
 A|---2-----------------------------------2----------------0---------------------|
 E|----------------------------------3-------------------------------------------|

Middle#1
Guitar 1 (Clean)
 
 e|---2--2--x--x--2--2--x--x--3--3--x--x--0--0--x--x---|
 B|---3--3--x--x--3--3--x--x--3--3--x--x--0--0--x--x---|
 G|---4--4--x--x--4--4--x--x--0--0--x--x--2--2--x--x---|
 D|---4--4--x--x--4--4--x--x--0--0--x--x--2--2--x--x---|
 A|---2--2--x--x--2--2--x--x--2--2--x--x--0--0--x--x---|
 E|---2--2--x--x--2--2--x--x--3--3--x--x--0--0--x--x---|

|Guitar 2 (Distorted) - Hold This Chord 2x
 
 e|----------------------------------------------------|
 B|----------------------------------------------------|
 G|---4------------(4)---------(4)---------(4)---------|
 D|---4------------(4)---------(4)---------(4)---------|
 A|---2------------(2)---------(2)---------(2)---------|
 E|----------------------------------------------------|

Chorus1
Guitar 1 & 2 (Distorted)
 
 e|-------------------------------------------------------------------|
 B|-------------------------------------------------------------------|
 G|---4-4-4---4-4-4---4-4-4---4-4-4-------------------2-2-2---2-2-2---|
 D|---4-4-4---4-4-4---4-4-4---4-4-4---5-5-5---5-5-5---2-2-2---2-2-2---|
 A|---2-2-2---2-2-2---2-2-2---2-2-2---5-5-5---5-5-5---0-0-0---0-0-0---|
 E|-----------------------------------3-3-3---3-3-3-------------------|

Chorus2
 
 e|-------------------------------------------------------------------|
 B|-------------------------------------------------------------------|
 G|---4-4-4---4-4-4---4-4-4---4-4-4-----------------------------------|
 D|---4-4-4---4-4-4---4-4-4---4-4-4---2-2-2---2-2-2---4-4-4---4-4-4---|
 A|---2-2-2---2-2-2---2-2-2---2-2-2---2-2-2---2-2-2---4-4-4---4-4-4---|
 E|-----------------------------------0-0-0---0-0-0---2-2-2---2-2-2---|

Middle#2
Repeat 2x
Guitar 1 (Clean - Arpeggate As Follows)
 
 e|------------------------------------------------------------------------------|
 B|--------------3-----------------------------------------------------------0---|
 G|*---------4--------4---------0--------------------0-----------------2--------*|
 D|*-----4-----------------4-------------------0-----------------2--------------*|
 A|---2-----------------------------------2----------------0---------------------|
 E|----------------------------------3-------------------------------------------|

| |
|Guitar 2 (Distorted) - Hold This Chord 2x |
| B5 |
 
 e|------------------------------------------------------------------------------|
 B|------------------------------------------------------------------------------|
 G|---4---------(4)---------(4)--------(4)---------(4)---------(4)--------(4)----|
 D|---4---------(4)---------(4)--------(4)---------(4)---------(4)--------(4)----|
 A|---2---------(2)---------(2)--------(2)---------(2)---------(2)--------(2)----|
 E|------------------------------------------------------------------------------|

Solo#1
Guitar 1 (Distorted)
 
 e|---------------------------------------------------|
 B|---------------------------------------------------|
 G|*--------------------------------------------------|
 D|*--------------------------------------------------|
 A|---2---4---5---4---5---4---7---5---4---5---4---5---|
 E|---------------------------------------------------|

| |
|Guitar 2 (Distorted - Hold Chords in ()'s) |
| |
 
 e|---------------------------------------------------|
 B|---------------------------------------------------|
 G|*--4---(4)---(4)---(4)-----9--(9)---7---(7)---(7)--|
 D|*--4---(4)---(4)---(4)-----9--(9)---7---(7)---(7)--|
 A|---2---(2)---(2)---(2)-----7--(7)---5---(5)---(5)--|
 E|---------------------------------------------------|

Solo#2
Guitar 1 (Distorted)
 
 e|------------------------------------------------------|
 B|------------------------------------------------------|
 G|-----------------------------------------------------*|
 D|-----------------------------------------------------*|
 A|---2---0---2---0---2---0------------------------------|
 E|---------------------------0--0--0--000--2--2--2--222-|

Guitar 2 (Distorted - Hold Chords in ()'s) |
 
 e|------------------------------------------------------|
 B|------------------------------------------------------|
 G|---4---(4)---(4)---(4)-------------------------------*|
 D|---4---(4)---(4)---(4)-----2---(2)---4---(4)---(4)---*|
 A|---2---(2)---(2)---(2)-----2---(2)---4---(4)---(4)----|
 E|---------------------------0---(0)---2---(2)---(2)----|

Middle#3
Repeat 2x
Guitar 1 (Clean - Arpeggate As Follows)
 
 e|---------------2--------------------------3---------------------0-------------|
 B|-------------------3-------3-------------------3--------------------2---------|
 G|----------4------------4-----------------------------------2------------------|
 D|-------4----------------------------------------------2-----------------------|
 A|---2---------------------------------2----------------------------------------|
 E|--------------------------------3---------------------------------------------|

| |
|Guitar 2 (Distorted) - Hold This Chord 2x |
| B5 |
 
 e|------------------------------------------------------------------------------|
 B|------------------------------------------------------------------------------|
 G|---4---------(4)---------(4)--------(4)---------(4)---------(4)--------(4)----|
 D|---4---------(4)---------(4)--------(4)---------(4)---------(4)--------(4)----|
 A|---2---------(2)---------(2)--------(2)---------(2)---------(2)--------(2)----|
 E|------------------------------------------------------------------------------|

Outro#1
Guitar 1 (Distorted)
 
 e|---------------------------------------------------|
 B|---------------------------------------------------|
 G|*--------------------------------------------------|
 D|*--------------------------------------------------|
 A|---2---4---5---4---5---4---7---5---4---5---4---5---|
 E|---------------------------------------------------|

Guitar 2 (Distorted - Hold Chords in ()'s)
 
 e|---------------------------------------------------|
 B|---------------------------------------------------|
 G|*--4---(4)---(4)---(4)-----9--(9)---7---(7)---(7)--|
 D|*--4---(4)---(4)---(4)-----9--(9)---7---(7)---(7)--|
 A|---2---(2)---(2)---(2)-----7--(7)---5---(5)---(5)--|
 E|---------------------------------------------------|

Outro#2
Guitar 1 (Distorted)
 
 e|------------------------------------------------------|-----------|
 B|------------------------------------------------------|-----------|
 G|-----------------------------------------------------*|--4---(4)--|
 D|-----------------------------------------------------*|--4---(4)--|
 A|---2---0---2---0---2---0------------------------------|--2---(2)--|
 E|---------------------------0--0--0--000--2--2--2--222-|-----------|

Guitar 2 (Distorted - Hold Chords in ()'s)
 
 e|------------------------------------------------------|-----------|
 B|------------------------------------------------------|-----------|
 G|---4---(4)---(4)---(4)-------------------------------*|--4---(4)--|
 D|---4---(4)---(4)---(4)-----2---(2)---4---(4)---(4)---*|--4---(4)--|
 A|---2---(2)---(2)---(2)-----2---(2)---4---(4)---(4)----|--2---(2)--|
 E|---------------------------0---(0)---2---(2)---(2)----|-----------|

2.LOSER
 
 -------0---------|---------0-------|-------0---------|---------0-----0-|------|
 -----------0-----|-----------0---0-|-----3-----3-----|-----3-----3---0-|------|
 -------------3---|-----3-----------|---2---------2---|---2-------------|------|
 -----4-----------|-----4-------4---|-0-------------0-|-------0-----0---|------|
 ---4-------------|---4-------------|-----------------|-----------------|---4--|
 -2-------------2-|-------2---------|-----------------|-----------------|-2----|
 ---0---------|---------0-------|-------0---------|---------0-------|----------|
 ---0---------|-----------0---0-|-----3-----3-----|-----3-----3-----|----------|
 -------3-----|-----3---------3-|---2-------------|---2---------2---|----------|
 -4-----------|-------------4---|-0-------------0-|-------0-------0-|----------|
 -------------|---4-------------|-----------------|-----------------|----------|
 -----------2-|-------2---------|-----------------|-----------------|----------|
 -------0-0-0-----|-----------------|-------0-0-0-----|-----------------|------|
 -------0-0-0-----|---5-5-5-5-5-5-5-|-------0-0-0-----|---5-5-5-5---5-5-|------|
 -------3-3-3-7---|---7-7-7-7-7-7-7-|-------3-3-3-7---|---7-7-7-7---7-7-|------|
 -4-----4-4-4-7---|---7-7-7-7-7-7-7-|-4-----4-4-4-7---|---7-7-7-7---7-7-|-4-4--|
 -4-----4-4-4-5---|---5-5-5-5-5-5-5-|-4-----4-4-4-5---|---5-5-5-5---5-5-|-4-4--|
 -2-----2-2-2-----|-----------------|-2-----2-2-2-----|---------0---0-0-|-2-2--|
 ---0-0-0-----|-----------------|-------0-0-0-----|-----------------|----------|
 ---0-0-0-----|---5-----5-------|-------0-0-0-----|---5-5-5-5---5---|----------|
 ---3-3-3-7---|-----7-----7-----|-------3-3-3-7---|---7-7-7-7---7---|----------|
 -4-4-4-4-7---|-------7---------|-4-----4-4-4-7---|---7-7-7-7---7---|----------|
 -4-4-4-4-5---|-------------5---|-4-----4-4-4-5---|---5-5-5-5---5---|----------|
 -2-2-2-2-----|-----------------|-2-----2-2-2-----|---------5h7-5---|----------|
 -----------------|-----------------|-----------------|-----------------|------|
 -----------------|-----------------|-----------------|-----------------|------|
 -------3-3---7---|---7-7-7-7---7-7-|-------3-3-3-7---|---7-7-7-7/9-9---|------|
 -4-----4-4---7---|---7-7-7-7---7-7-|-4-----4-4-4-7---|---7-7-7-7-9-9---|-4----|
 -4-----4-4---5---|---5-5-5-5---5-5-|-4-----4-4-4-5---|---5-5-5-5---0---|-4----|
 -2-----2-2-------|-----------------|-2-----2-2-2-----|-----------------|-2----|

Verse 1: (00:15)
 
 ---0-0-0-----|-----------------|-------0-0-0-----|-----------------|----------|
 ---0-0-0-----|---5-----5-------|-------0-0-0-----|---5-5-5---------|----------|
 ---3-3-3-7---|-----7-----7-----|-------3-3-3-7---|---7-7-7-7---7---|-------3--|
 ---4-4-4-7---|-------7-----7---|-4-----4-4-4-7---|---7-7-7-7---7---|-4-----4--|
 ---4-4-4-5---|-----------------|-4-----4-4-4-5---|---5-5-5-5---5---|-4-----4--|
 ---2-2-2-----|-----------------|-2-----2-2-2-----|---------5h7-5---|-2-----2--|
 ---------|-----------------|-----------------|-----------------|--------------|
 ---------|-----------------|-----------------|-----------------|--------------|
 -3-3-7---|---7---7-7---7-7-|-------3-3-3-7---|---7---7-7/9-9---|-------3-3-3--|
 -4-4-7---|---5---5-5---5-5-|-4-----4-4-4-7---|---7---7-7/9-9---|-4-4-4-4-4-4--|
 -4-4-5---|---5---5-5---5-5-|-4-----4-4-4-5---|---5---5-5---0---|-4-4-4-4-4-4--|
 -2-2-----|-----------------|-2-----2-2-2-----|-----------------|-2-2-2-2-2-2--|
 -----|-----------------|-----------------|-----------------|------------------|
 -----|---5-----5-------|-----------------|-----------------|------------------|
 -7---|-----7-----7-----|-------3---3-7---|---7-7-7-7-7-7-7-|------------------|
 -7---|-------7-----7---|-4-4-4-4---4-7---|---7-7-7-7-7-7-7-|------------------|
 -5---|-------------5---|-4-4-4-4---4-5---|---5-5-5-5-5-5-5-|------------------|
 -----|-------------0---|-2-2-2-2---2-----|-----------------|------------------|
 -----------------|---0---0-0-0-0-0-|-----------------|-----------------|------|
 -----------------|---0---0-0-0-0-0-|-----------------|-----------------|------|
 -9-----9-9-9-3---|---3---3-3-3-3-3-|-7-----7-7-7-9---|---9---9-9-9-9-9-|-9----|
 -9-----9-9-9-4---|---4---4-4-4-4-4-|-7-----7-7-7-9---|---9---9-9-9-9-9-|-9----|
 -7-----7-7-7-4---|---4---4-4-4-4-4-|-5-----5-5-5-7---|---7---7-7-7-7-7-|-7----|
 -0-----0-0-0-2---|---2---2-2-2-2-2-|-------------0---|---0---0-0-0-0-0-|-0----|

Chorus: (00:55) (3x)
 
 -------------|---0---0-0-0-0-0-|-----------------|-----------------|----------|
 -------------|---0---0-0-0-0-0-|-------5---5-----|---5-------------|----------|
 ---9-9-9-3---|---3---3-3-3-3-3-|-7-----7---7-7---|---7-7---7-7-7-7-|----------|
 ---9-9-9-4---|---4---4-4-4-4-4-|-7-----7---7-7---|---7-7---7-7-7-7-|----------|
 ---7-7-7-4---|---4---4-4-4-4-4-|-5-----5---5-5---|---5-5---5-5-5-5-|----------|
 ---0-0-0-2---|---2---2-2-2-2-2-|-----------------|-----------------|----------|
 -------0-0-0-----|-----------------|-------0---0-----|-----------------|------|
 -------0-0-0-----|---5-5-5---------|-------0---0-----|---5---5---------|------|
 -------3-3-3-7---|---7-7-7-7-7-7-7-|-3-3-3-3---3-7---|---7---7-7---7---|------|
 -4-----4-4-4-7---|---7-7-7-7-7-7-7-|-4-4-4-4---4-7---|---7---7-7---7---|-4-4--|
 -4-----4-4-4-5---|---5-5-5-5-5-5-5-|-4-4-4-4---4-5---|---5---5-5---5---|-4-4--|
 -2-----2-2-2-----|-------------0---|-2-2-2-2---2-----|---------5h7-5---|-2-2--|

Intro to verse 2: (01:21)
 
 ---0---0-----|-----------------|-------0---0-----|-----------------|----------|
 ---0---0-----|---5-----5-------|-------0---0-----|---5---5---------|----------|
 ---3---3-7---|-----7-----7-----|-3-3-3-3---3-7---|---7---7-7---7---|----------|
 -4-4---4-7---|-------7-----7-7-|-4-4-4-4---4-7---|---7---7-7---7---|----------|
 -4-4---4-5---|-------------5-5-|-4-4-4-4---4-5---|---5---5-5---5---|----------|
 -2-2---2-----|-------------0-0-|-2-2-2-2---2-----|---------5h7-5---|----------|
 -----------------|-----------------|-------0---0-----|-----------------|------|
 -0-----0-0-0-----|---5-5-5---------|-------0---0-----|-----------------|------|
 -3-----3-3-3-7---|---7-7-7-7-7-7---|-------3---3-7---|---7---7-7/9-9---|------|
 -4-----4-4-4-7---|---7-7-7-7-7-7---|-4-4-4-4---4-7---|---7---7-7/9-9---|-4-4--|
 -4-----4-4-4-5---|---5-5-5-5-5-5---|-4-4-4-4---4-5---|---5---5-5---0---|-4-4--|
 -2-----2-2-2-----|-----------------|-2-2-2-2---2-----|-----------------|-2-2--|

Verse 2: (01:34)
 
 ---0-0-0-----|-----------------|-------0---0-----|-----------------|-------0--|
 ---0-0-0-----|---5-----5-------|-------0---0-----|-----------------|-------0--|
 ---3-3-3-7---|-----7-----7-----|-3-3-3-3---3-7---|---7-7-7-7---7---|-3-3-3-3--|
 -4-4-4-4-7---|-------7-----7-7-|-4-4-4-4---4-7---|---7-7-7-7---7---|-4-4-4-4--|
 -4-4-4-4-5---|-------------5-5-|-4-4-4-4---4-5---|---5-5-5-5---5---|-4-4-4-4--|
 -2-2-2-2-----|-------------0-0-|-2-2-2-2---2-----|---------5h7-5---|-2-2-2-2--|
 ---0-----|-----------------|-----------------|-----------------|-------0---0--|
 ---0-----|---5-----5-------|-----------------|---5-5-5---------|-------0---0--|
 ---3-7---|---7-7---7-------|-3-3-3-3---3-7---|---7-7-7-7---7---|-------3---3--|
 ---4-7---|---7---7-7---7---|-4-4-4-4---4-7---|---7-7-7-7---7---|-4-4-4-4---4--|
 ---4-5---|---5-----5---5---|-4-4-4-4---4-5---|---5-5-5-5---5---|-4-4-4-4---4--|
 ---2-----|-------------0---|-2-2-2-2---2-----|---------5h7-5---|-2-2-2-2---2--|
 -----|-----------------|-------0---0-----|-----------------|------------------|
 -----|---5-5-5---------|-------0---0-----|-----------------|------------------|
 -7---|---7-7-7-7-7-7-7-|-3-3-3-3---3-7---|---7-7-7-7/9-9-9-|------------------|
 -7---|---7-7-7-7-7-7-7-|-4-4-4-4---4-7---|---7-7-7-7/9-9-9-|------------------|
 -5---|---5-5-5-5-5-5-5-|-4-4-4-4---4-5---|---5-5-5-5-7-7-7-|------------------|
 -----|-------------0-0-|-2-2-2-2---2-----|-----------------|------------------|
 -----------------|---0---0-0-0-0-0-|-----------------|-----------------|------|
 -----------------|---0---0-0-0-0-0-|-----------------|-----------------|------|
 -9-----9-9-9-3---|---3---3-3-3-3-3-|-7-----7-7-7-9---|---9---9-9-9-9-9-|-9----|
 -9-----9-9-9-4---|---4---4-4-4-4-4-|-7-----7-7-7-9---|---9---9-9-9-9-9-|-9----|
 -7-----7-7-7-4---|---4---4-4-4-4-4-|-5-----5-5-5-7---|---7---7-7-7-7-7-|-7----|
 -0-----0-0-0-2---|---2---2-2-2-2-2-|-------------0---|---0---0-0-0-0-0-|-0----|

Chorus: (02:00) (3x)
 
 -------------|---0---0-0-0-0-0-|-----------------|-----------------|----------|
 -------------|---0---0-0-0-0-0-|-------5---5-----|---5-------------|----------|
 ---9-9-9-3---|---3---3-3-3-3-3-|-7-----7---7-7---|---7-7---7-7-7-7-|-7-----7--|
 ---9-9-9-4---|---4---4-4-4-4-4-|-7-----7---7-7---|---7-7---7-7-7-7-|-7-----7--|
 ---7-7-7-4---|---4---4-4-4-4-4-|-5-----5---5-5---|---5-5---5-5-5-5-|-5-----5--|
 ---0-0-0-2---|---2---2-2-2-2-2-|-----------------|-----------------|-0-----0--|
 ---------|-----------------|--------------------------------------------------|
 ---------|-----------------|--------------------------------------------------|
 -7-7-7---|---7---7-7-7-7-7-|--------------------------------------------------|
 -7-7-7---|---7---7-7-7-7-7-|--------------------------------------------------|
 -5-5-5---|---5---5-5-5-5-5-|--------------------------------------------------|
 -0-0-0---|---0---0-0-0-0-0-|--------------------------------------------------|
 -----------------|-----------------|--------------------|-----------------|---|
 -----------------|-----------------|--------------------|-----------------|---|
 -----------------|-----------------|--------------------|---7-7-7-7---7-7-|-7-|
 -7h9-9-9-9-9-7---|---7-7-7-7---7-7-|-7h9-9-9/11-11-11---|-----------------|---|
 -----------------|-----------------|--------------------|-----------------|---|
 -----------------|-----------------|--------------------|-----------------|---|

Solo: (02:29)
 
 ----------------|-----------------|------------------|-------------------|----|
 ----------7-7---|---7-7-7-7---7---|-------9h10--9--7-|h9--7------------0-|----|
 -h9-9-9---------|-----------------|------------------|-------9-h11--9----|h9--|
 ----------------|-----------------|------------------|-------------------|----|
 ----------------|-----------------|------------------|-------------------|----|
 ----------------|-----------------|------------------|-------------------|----|
 ----------------|-----------------|-----------------|-----------------|--------|
 -----------------|-----------------|-----------------|-----------------|-------|
 --7--6h7--6-/2---|-----------------|-----------------|-----------------|-------|
 -----------------|-2/4-4-4-----2---|---4-4-4-4---4-4-|-2/4-4-4-----6---|--/7---|
 -----------------|-----------------|-----------------|-----------------|-------|
 -----------------|-----------------|-----------------|-----------------|-------|
 -------------|--------------------|--------------------|----------------------|
 -------------|--------------------|--------------------|----------------------|
 -------------|--------------------|--------------------|----------------------|
 -7-7-7---7-7-|-7/9-9-9---/11-11---|---12-12-12---------|----------------------|
 -------------|--------------------|--------------------|----------------------|
 -------------|--------------------|--------------------|----------------------|
 -----------------|---0---0-0-0-0-0-|-----------------|-----------------|------|
 -----------------|---0---0-0-0-0-0-|-----------------|-----------------|------|
 -9-----9-9-9-3---|---3---3-3-3-3-3-|-7-----7-7-7-9---|---9---9-9-9-9-9-|-9----|
 -9-----9-9-9-4---|---4---4-4-4-4-4-|-7-----7-7-7-9---|---9---9-9-9-9-9-|-9----|
 -7-----7-7-7-4---|---4---4-4-4-4-4-|-5-----5-5-5-7---|---7---7-7-7-7-7-|-7----|
 -0-----0-0-0-2---|---2---2-2-2-2-2-|-------------0---|---0---0-0-0-0-0-|-0----|

Outro: (7x)
 
 -------------|---0---0-0-0-0-0-|-----------------|-----------------|----------|
 -------------|---0---0-0-0-0-0-|-----------------|-----------------|----------|
 ---9-9-9-3---|---3---3-3-3-3-3-|-7---------------|-----------------|----------|
 ---9-9-9-4---|---4---4-4-4-4-4-|-7---------------|-----------------|----------|
 ---7-7-7-4---|---4---4-4-4-4-4-|-5---------------|-----------------|----------|
 ---0-0-0-2---|---2---2-2-2-2-2-|-----------------|-----------------|----------|

3.DUCK AND RUN
Intro- Clean
 
 e|-------------------------------------------------|
 B|-------------------------------------------------|
 G|-9--9-9-9-9-9-12-12-11-11-9-5--5-5-5-5-4-4-5-5-7-|
 D|-------------------------------------------------|
 A|-7--7-7-7-7-7-10-10--9-9--7-3--3-3-3-3-2-2-3-3-5-|
 E|-------------------------------------------------|
 e|-----------------------------------------------|
 B|-----------------------------------------------|
 G|-9--9-9-9-9-9-12-12-11-14-5--5-5-5-5-4-4-5-5-7-|
 D|-----------------------------------------------|
 A|-7--7-7-7-7-7-10-10--9-12-3--3-3-3-3-2-2-3-3-5-|
 E|-----------------------------------------------|
 e|-------------------------------------------------|
 B|-------------------------------------------------|
 G|-9--9-9-9-9-9-12-12-11-11-9-5--5-5-5-5-4-4-5-5-7-|
 D|-------------------------------------------------|
 A|-7--7-7-7-7-7-10-10--9-9--7-3--3-3-3-3-2-2-3-3-5-|
 E|-------------------------------------------------|
 e|-----------------------------------------------|
 B|-----------------------------------------------|
 G|-9--9-9-9-9-9-12-12-11-14-5--5-5-5-5-4-4-5-5-7-|
 D|-----------------------------------------------|
 A|-7--7-7-7-7-7-10-10--9-12-3--3-3-3-3-2-2-3-3-5-|
 E|-----------------------------------------------|

Verse- Distorted
 
 e-----------------------------------------------------|
 B-----------------------------------------------------|
 G-----------------------------------------------------|
 D-----------------------------------------------------|
 A--5h7-7-7-7-7--------------5h7-7-7-7-7---------------|
 E---------------8-7--7-8-----------------8--7--7h8p7--|

pm....
Chorus- Distorted
 
 e-------------------|-------------------|-------------------|-------------------|
 B-------------------|-------------------|-------------------|-------------------|
 G-------------------|-------------------|--5----------------|--4-----7----------|
 D--2----------------|--5-----4----------|--5----------------|--4-----7----------|
 A--2----------------|--5-----4----------|--3----------------|--2-----5----------|
 E--0----------------|--3-----2----------|-------------------|-------------------|

Thing before Verse
 
 E-------------------|
 B-------------------|
 G--4----------------|
 D--2-4--5--2-2-4-5--|
 A----2--3--0-0-2-3--|
 E-------------------|
 e-------------------|
 B-------------------|
 G-4-----------------|
 D-2-4--5--2-2-4h5p4-|
 A---2--3--0-0-2h3p2-|
 E-------------------|
 E-------------------|
 B-------------------|
 G--4----------------|
 D--2-4--5--2-2-4-5--|
 A----2--3--0-0-2-3--|
 E-------------------|
 E-------------------|
 B-------------------|
 G--4----------------|
 D--2-4--5-5555/-----|
 A----2--3-3333/-----|
 E-------------------|

Verse
Chorus
Thing before Solo
 
 E-----------------------------------|
 B-----------------------------------|
 G--9--4-4---9--4-4---9--7-6-9-9-9-9-|
 D-----------------------5-4-7-7-7-7-|
 A--7--2-2---7--2-2---7--------------|
 E-----------------------------------|
 E-----------------------------------|
 B-----------------------------------|
 G--9--4-4---9--4-4---9--------------|
 D-----------------------5-4-2-2-2-2-|
 A--7--2-2---7--2-2---7--3-2-0-0-0-0-|
 E-----------------------------------|
 E-----------------------------------|
 B-----------------------------------|
 G--9--4-4---9--4-4---9--7-6-9-9-9-9-|
 D-----------------------5-4-7-7-7-7-|
 A--7--2-2---7--2-2---7--------------|
 E-----------------------------------|
 E-----------------------------------|
 B-----------------------------------|
 G--9--4-4---9--4-4---9--------------|
 D-----------------------5-4-2-2-2-2-|
 A--7--2-2---7--2-2---7--3-2-0-0-0-0-|
 E-----------------------------------|

Solo (Verse is played in background)
 
 e---------------------------------------------------------------------------------|
 B---------------------------------------------------------------------------------|
 G------12--11--12-11-------------12--11--12-11--14-12~~--12-11-12-11--------------|
 D-14~~------------------12--14~~-------------------------------------12--14-------|~-REPEAT
 A---------------------------------------------------------------------------------|
 E---------------------------------------------------------------------------------|

4.NOT ENOUGH
intro
 
 e|----------------------------|
 B|----------------------------|
 G|------0---0----0-----0------|
 D|----2----2---------0---0----|
 A|--0----3-----3---5------5---|
 E|-----------1----3--------3--|

2nd guitar just plays:
 
 e|--17--------|
 B|----17------|
 e|------------------------|---------------|
 B|------------------------|---------------|
 G|------------------------|---------------|
 D|------------------------|2-5------------|
 A|-5-5-7-7--10-3-3-5-5----|0-3-3--5-5-5---|
 E|-3-3-5-5--8--1-1-3-3----|----1--3-3-3---|

solo:
 
 e|----------------|--------------------------------------|
 B|----------------|--5------5------5---------------------|
 G|--5-4-----------|-^7(9)--^7(9)--^7(9)-^7(9)r-7p5-7--5--|
 D|------5---5-7---|------------------------------------7-|
 A|--------7-------|--------------------------------------|
 E|----------------|--------------------------------------|
 e|--------------------|-------------|----------------------|
 B|------8--10---------|8p5----8p5---|----------------------|
 G|--7/9--9---9--------|---7p5----7p5|--7^(9)--7^(9)~-7-5---|
 D|--------------5-----|-------------|--------------------7-|
 A|----------------7-7-|-------------|----------------------|
 E|--------------------|-------------|----------------------|

end on:
G|-0--|
D|-0--|
A|-3--|
E|-1--|
5.BE LIKE THAT
Intro (2x) and verse (4x):
 
 -------3---------|-------0---------|-----------0-----|-----------0-----|
 -----------3-----|---3-------3-----|-------3-----3---|-------3-----3---|
 ---0---------0---|-----2-------2---|---------------0-|-----0---------0-|
 -----0---------0-|-0-------------0-|-----0-----------|---2-------------|
 -----------------|-----------------|---2-------------|-3---------------|
 -3---------------|-----------------|-0---------------|-----------------|

chorus:
 
 --3-----0-----0-----0-----------------|
 --3-----3-----3-----3-----------------|
 --0-----2-----0-----0-----------------|
 --0-----0-----2-----2-----------------|
 --2-----0-----2-----3-----------------|
 --3-----------------------------------|
 ------------------|------------------|------------------|------------------|
 -11111--00000--01-|-11111--00000--0--|-00000--11111--00-|-00000--11111--00-|
 -22222--22222--22-|-00000--00000--02-|-00000--00000--00-|-00000--00000--00-|
 -22222--22222--22-|-22222--22222--22-|-00000--00000--00-|-00000--00000--00-|
 -00000--00000--00-|-33333--33333--33-|-22222--22222--22-|-22222--22222--22-|
 ------------------|------------------|-33333--33333--33-|-33333--33333--33-|

Intro to verse 2:
 
 ------------------|------------------|------------------|-----------------|
 -11111--00000--01-|-11111--00000--0--|-00000--11111--11-|-00000011111--11-|
 -22222--22222--22-|-00000--00000--02-|-00000--00000--00-|-00000000000--00-|
 -22222--22222--22-|-22222--22222--22-|-00000--00000--00-|-00000022222--22-|
 -00000--00000--00-|-33333--33333--33-|-22222--22222--22-|-22222233333--33-|
 ------------------|------------------|-33333--33333--33-|-----------------|
 --------3---------|-------0---------|-----------0-----|-----------0-----|
 ------------3-----|---3-------3-----|-------3-----3---|-------3-----3---|
 ----0---------0---|-----2-------2---|---------------0-|-----0---------0-|
 ------0---------0-|-0-------------0-|-----0-----------|---2-------------|
 ------------------|-----------------|---2-------------|-3---------------|
 --3---------------|-----------------|-0---------------|-----------------|

Verse 2: (4x)
Chorus: 2x
 
 --3-----0-----0-----0-----------------|
 --3-----3-----3-----3-----------------|
 --0-----2-----0-----0-----------------|
 --0-----0-----2-----2-----------------|
 --2-----0-----2-----3-----------------|
 --3-----------------------------------|

Interlude:
 
 ------------------|------------------|------------------|-----------------|
 -11111--00000--01-|-11111--00000--0--|-00000--11111--11-|-00000011111--11-|
 -22222--22222--22-|-00000--00000--02-|-00000--00000--00-|-00000000000--00-|
 -22222--22222--22-|-22222--22222--22-|-00000--00000--00-|-00000022222--22-|
 -00000--00000--00-|-33333--33333--33-|-22222--22222--22-|-22222233333--33-|
 ------------------|------------------|-33333--33333--33-|-----------------|
 ---3---------|-------0---------|-----------0-----|-----------------|
 -------3-----|---3-------3-----|-------3-----3---|-----------------|
 ---------0---|-----2-------2---|---------------0-|-5-5-5-5-5-5-5-5-|
 -0---------0-|-0-------------0-|-----0-----------|-5-5-5-5-5-5-5-5-|
 -------------|-----------------|---2-------------|-3-3-3-3-3-3-3-3-|
 -------------|-----------------|-0---------------|-----------------|

Chorus: 4x
 
 --3-----0-----0-----0----------------|
 --3-----3-----3-----3----------------|
 --0-----2-----0-----0----------------|
 --0-----0-----2-----2----------------|
 --2-----0-----2-----3----------------|
 --3----------------------------------|

Outro:
 
 0-----0-----0-----0-----0-----0---3--|
 3-----3-----3-----3-----3-----3---3--|
 0-----0-----0-----0-----0-----0---0--|
 2-----2-----2-----2-----2-----2---0--|
 2-----3-----2-----3-----2-----3---2--|
 ----------------------------------3--|

6.LIFE OF MY OWN
*1 - Intro/Verse
 
 E |--------------------------|----------------------------------------|
 B |--------------------------|----------------------------------------|
 G |------------------------0-|----------------------------0-----------|
 D |----9-----0-------4---4-5-|----9-----0-----------------------------|
 A |--7-----7-----5-----5-----|--7-----7------------9----9-------------|
 E |0-----8-------------------|0-----8-------8/10-----10---------------|

(both of these are the same notes ... play it how you like)
 
 E |3----2----0-----------------|
 B |--3----3----2---------------|
 G |----2----2------------------|

(litte fill in the verse ---| it\'s an arpeggiated Dsus4 - D - Dsus2)
*2 - Chorus
[E5] [G5] [D5]  
 
 E |-------------------------------------------------------------------|
 B |-------------------------------------------------------------------|
 G |--------7----------------------------------------------------------|
 D |2---5---7----------------------------------------------------------|
 A |2---5---5----------------------------------------------------------|
 E |0---3--------------------------------------------------------------|

(Too lazy to do rhythm -- put the guitar down if you can\'t get it!)
*3 - Solo (not extraordinarily difficult as solos go...)
 
 E |---------------------------------------------------------------------|
 B |---------------------------------------------------------------------|
 G |7/9-9-9-97-7/9--9-9-9-97-7-7-7/9-9-9-9/11-11-11-11/12-12/14-12/16----|
 D |---------------------------------------------------------------------|
 A |---------------------------------------------------------------------|
 E |---------------------------------------------------------------------|
 E |---------------------------------------------------------------------|
 B |---------------------------------------------------------------------|
 G |1614-14-14-1412-12---1211-119-9/11-11----------12-11---9-7-9---------|
 D |---------------------------------------------12-14-------------------|
 A |---------------------------------------------------------------------|
 E |---------------------------------------------------------------------|
 E |-------------------------------------------------------------------|
 B |-------------------------------------------------------------------|
 G |----------11h12-16-14-12-11----------------0-2---0-----------------|
 D |-----12h14---------------------2-------2-4---------4-2---0-2-------|
 A |12h14------------------------------4-5-----------------------------|
 E |---------------------------------0---------------------------------|
 E |-------------------------------------------------------------------|
 B |-------------------------------------------------------------------|
 G |--------------11h12-12/16-14---12-11-------------------------------|
 D |-----12h14-12--------------------------12-14-----------------------|
 A |12h14--------------------------------------------------------------|
 E |-------------------------------------------------------------------|
 E |-------------------------------------------------------------------|
 B |-------------------------------------------------------------------|
 G |--------------------------11-x-11---11-11--11-11-12---12-12-12-----|
 D |14---12-12-12-14---14-14-------------------------------------------|
 A |--------------------------9--x-9----9--9---9--9--10---10-10-10-----|
 E |12---10-10-10-12---12-12-------------------------------------------|
 E |-------------------------------------------------------------------|
 B |---------------------------------15--------------------------------|
 G |12-12-12/14-14-14---16-x-16---16-----------------------------------|
 D |---------------------------------12--------------------------------|
 A |10-10-10/12-12-12---14-x-14---14-----------------------------------|
 E |-------------------------------------------------------------------|

7.BETTER LIFE
( Tab from: http://www.guitartabs.cc/tabs/0-9/3_doors_down/better_life_tab_ver_5.html )
Intro:
(only 1st guitar)
 
 ------------------------------------------------------------------------------|
 ------------------------------------------------------------------------------|
 ------------------------------------------------------------------------------|
 ------------------------------------------------------------------------------|
 -2-4--4-4-4-2-4--4-4-4-7-4--4-4-4-2-4--4-4-4----------------------------------|
 -0-2--2-2-2-0-2--2-2-2-5-2--2-2-2-0-2--2-2-2----------------------------------|

* * * * * * * *
(then 1st + 2nd guitar)
 
 ------------------------------------------------------------------------------|
 ------------------------------------------------------------------------------|
 ------------------------------------------------------------------------------|
 ------------------------------------------------------------------------------|
 -9-4--4-4-4-2-4--4-4-4-7-4--4-4-4-2-4--4-4------------------------------------|
 -7-2--2-2-2-0-2--2-2-2-5-2--2-2-2-0-2--2-2------------------------------------|

* * * * * * *
Verse:
(only 2nd guitar)
 
 ------------------------------------------------------------------------------|
 ------------------------------------------------------------------------------|
 ------------------------------------------------------------------------------|
 -------------7-----------------------------7--------9p7-----------------------|
 -7h9-9-7-9p7----7h9-9-7-9p7----7h9-9-7-9p7----7h9-9---------------------------|
 ----------------------------7-------------------------------------------------|

(then 1st + 2nd guitar)
 
 ------------------------------------------------------------------------------|
 ------------------------------------------------------------------------------|
 ------------------------------------------------------------------------------|
 -------------7-----------------------------7----------------------------------|
 -7h9-9-7-9p7----7h9-9-7-9p7----7h9-9-7-9p7----7h9-9-7---7-9-------------------|
 ----------------------------7-------------------------7-----------------------|
 ------------------------------------------------------------------------------|
 ------------------------------------------------------------------------------|
 ------------------------------------------------------------------------------|
 -------------7-----------------------------7--------9p7-----------------------|
 -7h9-9-7-9p7----7h9-9-7-9p7----7h9-9-7-9p7----7h9-9---------------------------|
 ----------------------------7-------------------------------------------------|

* * * * * * * * * * * * * * * * * * * * * *
 
 ------------------------------------------------------------------------------|
 ------------------------------------------------------------------------------|
 ------------------------------------------------------------------------------|
 -------------7-----------------------------7----------------------------------|
 -7h9-9-7-9p7----7h9-9-7-9p7----7h9-9-7-9p7----7h9-9-7---7-9-------------------|
 ----------------------------7-------------------------7-----------------------|

* * * * * * * * * * * * * * * * * * * * * *
Chorus: (2x)
 
 ------------------------------------------------------------------------------|
 ------------------------------------------------------------------------------|
 ------------------------------------------------------------------------------|
 -4--5--7--5--4--7-7-7-7--9-9-9-9----------------------------------------------|
 -4--5--7--5--4--7-7-7-7--9-9-9-9----------------------------------------------|
 -2--3--5--3--2--5-5-5-5--7-7-7-7----------------------------------------------|

Verse:
 
 ------------------------------------------------------------------------------|
 ------------------------------------------------------------------------------|
 ------------------------------------------------------------------------------|
 -------------7-----------------------------7--------9p7-----------------------|
 -7h9-9-7-9p7----7h9-9-7-9p7----7h9-9-7-9p7----7h9-9---------------------------|
 ----------------------------7-------------------------------------------------|
 ------------------------------------------------------------------------------|
 ------------------------------------------------------------------------------|
 ------------------------------------------------------------------------------|
 -------------7-----------------------------7----------------------------------|
 -7h9-9-7-9p7----7h9-9-7-9p7----7h9-9-7-9p7----7h9-9-7---7-9-------------------|
 ----------------------------7-------------------------7-----------------------|
 ------------------------------------------------------------------------------|
 ------------------------------------------------------------------------------|
 ------------------------------------------------------------------------------|
 -------------7-----------------------------7--------9p7-----------------------|
 -7h9-9-7-9p7----7h9-9-7-9p7----7h9-9-7-9p7----7h9-9---------------------------|
 ----------------------------7-------------------------------------------------|

* * * * * * * * * * * * * * * * * * * * * *
 
 ------------------------------------------------------------------------------|
 ------------------------------------------------------------------------------|
 ------------------------------------------------------------------------------|
 -------------7-----------------------------7----------------------------------|
 -7h9-9-7-9p7----7h9-9-7-9p7----7h9-9-7-9p7----7h9-9-7---7-9-------------------|
 ----------------------------7-------------------------7-----------------------|

* * * * * * * * * * * * * * * * * * * * * *
Chorus: (2x)
 
 ------------------------------------------------------------------------------|
 ------------------------------------------------------------------------------|
 ------------------------------------------------------------------------------|
 -4--5--7--5--4--7-7-7-7--9-9-9-9----------------------------------------------|
 -4--5--7--5--4--7-7-7-7--9-9-9-9----------------------------------------------|
 -2--3--5--3--2--5-5-5-5--7-7-7-7----------------------------------------------|

Verse:
 
 ------------------------------------------------------------------------------|
 ------------------------------------------------------------------------------|
 ------------------------------------------------------------------------------|
 -------------7-----------------------------7--------9p7-----------------------|
 -7h9-9-7-9p7----7h9-9-7-9p7----7h9-9-7-9p7----7h9-9---------------------------|
 ----------------------------7-------------------------------------------------|
 ------------------------------------------------------------------------------|
 ------------------------------------------------------------------------------|
 ------------------------------------------------------------------------------|
 -------------7-----------------------------7----------------------------------|
 -7h9-9-7-9p7----7h9-9-7-9p7----7h9-9-7-9p7----7h9-9-7---7-9-------------------|
 ----------------------------7-------------------------7-----------------------|

Brige: (2x;clean)
 
 ------------------------------------------------------------------------------|
 ------------------------------------------------------------------------------|
 ------------------------------------------------------------------------------|
 -2--4--5--7--9--11-2--4--5--11-9--7-------------------------------------------|
 -x--x--x--x--x--x--x--x--x--x--x--x-------------------------------------------|
 -0--2--3--5--7--9--0--2--3--9--7--5-------------------------------------------|

Solo:
(1st guitar)
 
 -------------------------------------------------------------------------------|
 ----------------------------------------------12-10----------------------------|
 -b12^^^^-b12^^^^^^-v14~~~~14\\\\\\---11-------------12-11-v9~-v7~-v9~~~~~~~~~~-|
 ----------------------------------------11-12----------------------------------|
 -------------------------------------------------------------------------------|
 -------------------------------------------------------------------------------|

(2nd guitar clean)
 
 ------------------------------------------------------------------------------|
 ------------------------------------------------------------------------------|
 ------------------------------------------------------------------------------|
 -2--4--5--7--9--11-2--4--5--11-9--7--2--4--5--7--9--11----9----7---4----------|
 -x--x--x--x--x--x--x--x--x--x--x--x--x--x--x--x--x--x-----x----x---x----------|
 -0--2--3--5--7--9--0--2--3--9--7--5--0--2--3--5--7--9-----7----5---2----------|

Verse:
(only 2nd guitar)
 
 ------------------------------------------------------------------------------|
 ------------------------------------------------------------------------------|
 ------------------------------------------------------------------------------|
 -------------7-----------------------------7--------9p7-----------------------|
 -7h9-9-7-9p7----7h9-9-7-9p7----7h9-9-7-9p7----7h9-9---------------------------|
 ----------------------------7-------------------------------------------------|

(then 1st + 2nd guitar)
 
 ------------------------------------------------------------------------------|
 ------------------------------------------------------------------------------|
 ------------------------------------------------------------------------------|
 -------------7-----------------------------7----------------------------------|
 -7h9-9-7-9p7----7h9-9-7-9p7----7h9-9-7-9p7----7h9-9-7---7-9-------------------|
 ----------------------------7-------------------------7-----------------------|
 ------------------------------------------------------------------------------|
 ------------------------------------------------------------------------------|
 ------------------------------------------------------------------------------|
 -------------7-----------------------------7--------9p7-----------------------|
 -7h9-9-7-9p7----7h9-9-7-9p7----7h9-9-7-9p7----7h9-9---------------------------|
 ----------------------------7-------------------------------------------------|
 ------------------------------------------------------------------------------|
 ------------------------------------------------------------------------------|
 ------------------------------------------------------------------------------|
 -------------7-----------------------------7----------------------------------|
 -7h9-9-7-9p7----7h9-9-7-9p7----7h9-9-7-9p7----7h9-9-7---7-9-------------------|
 ----------------------------7-------------------------7-----------------------|

Chorus: (4x)
 
 ------------------------------------------------------------------------------|
 ------------------------------------------------------------------------------|
 ------------------------------------------------------------------------------|
 -4--5--7--5--4--7-7-7-7--9-9-9-9----------------------------------------------|
 -4--5--7--5--4--7-7-7-7--9-9-9-9----------------------------------------------|
 -2--3--5--3--2--5-5-5-5--7-7-7-7----------------------------------------------|

outro:
 
 ------------------------------------------------------------------------------|
 ------------------------------------------------------------------------------|
 ------------------------------------------------------------------------------|
 ------------------------------------------------------------------------------|
 -2-4--4-4-4-2-4--4-4-4-7-4--4-4-4-2-4--4-4-4----------------------------------|
 -0-2--2-2-2-0-2--2-2-2-5-2--2-2-2-0-2--2-2-2----------------------------------|

* * * * * * * *
 
 ------------------------------------------------------------------------------|
 ------------------------------------------------------------------------------|
 ------------------------------------------------------------------------------|
 ------------------------------------------------------------------------------|
 -9-4--4-4-4-2-4--4-4-4-7-4--4-4-4-2-4--4-4------------------------------------|
 -7-2--2-2-2-0-2--2-2-2-5-2--2-2-2-0-2--2-2------------------------------------|

* * * * * * *
8.DOWN POISON
Gtrs.1 and 2 Dist.
 
 ----------------------------------------------------------------------|
 ----------------------------------------------------------------------|
 ---------------------------------0------------------------------------|
 -----5-----4-----2---------------0-------5-----4------2---------------|
 -----3-----2-----2-----------------------3-----2------2---------------|
 -0-0---0-0---3-2-0----------0-0--3---3-3---0-0---3-2--0-----0-0-------|

Acous. Gtr.1
 
 -------------------------------------------------------------------|
 -------------------------------------------------------------------|
 -0-----------------------------------------------------------------|
 -0-------5------4-------2------------------------------------------|
 ---------3------2-------2------------------------------------------|
 -3---3-3----0-0----3-2--0------------------------------------------|

Gtr.3 12 string
 
 ----0--------0------0------0-----0------------------------------------|
 --------0------0--------0----0-------0---0------0---0-----------------|
 -1----1---1-------1---1------------1---1---0--0---1---1---------------|
 ----------------------------------------------------------------------|
 ----------------------------------------------------------------------|
 ----------------------------------------------------------------------|

Gtr.4 clean tone
 
 ------------------------0-----------------------------------------|
 ------------------0-----------1---0--1---0------------------------|
 ---------------------0----------0------0--------0--------0--------|
 -0--------------------------------------------4-------0--0--------|
 ----------------------------3---------------2---------0-----------|
 -3------------------------------------------------3---------------|
 -------3-------------3----------3--0----0-------------------------|
 -----3---3----3--3---3---3---3--3--0--1---1-0-1---0------0--0--0--|
 -----------0-----0-------0---0------------------0------0----------|
 -0---------------------------0------------------------------------|
 -----------------------------------------------------2------------|
 -3----------------------------------------------------------------|

Gtr.3 and 4 and acoustic Gtr.1
 
 --------------------------------0------0----------------------------|
 -0--------------0-------------0-0------0---0--0---------------------|
 -1--------------1-------------1-1------1---1--1---1----0------------|
 -2---------2----2---------2---2-2------2---2--2---2----0------------|
 -2---------2--------------2-----2----2------------2----0------------|
 -0---------0--------------0-----0----0------------0-----------------|
 3--------------3--------------------------------------------------

Important: The song above is NOT stored on the Chordie server. The original song is hosted at www.guitartabs.cc. Chordie works as a search engine and provides on-the-fly formatting. Chordie does not index songs against artists'/composers' will. To remove this song please click here.

Text color:
Chord color:
Chord grids: 
Font size:    
Page size: 

D5 E5 G5
Rate #1 of 1 versions

Jango Player

Login - add to songbook

SHARE PAGE  



You need to log in to post comments