Guitar Tabs, Chords and Lyrics
Update 25:10. 13:00. Site is back up running again. Songbooks are recovered. Woring on getting search back up..


Borrowed Time  A Fine Frenzy

 
 ----------------------------------------------------------------------------

BORROWED TIME - A Fine Fenzy
 
 ----------------------------------------------------------------------------

Tabbed by:sparerib
Email:futrnun@hotmail.com
Tuning:standard
Capo 4
Go to version 2. It's better than mine. I mean it. Don't play this.
Intro: D G D G
[D]thick as thieves
the last of leaves
in the win[G]ter sun
[D]holding fast
this freezing branch
is h[G]ome to us
[D]step, step right over the l[G]ine
and onto borrowed t[D]ime
when itís life, not waiting to d[G]ie
NC D
waiting to divide to divide
[G]  
[D]counting stars
and passing cars
on the i[G]nterstate
the en[D]d is near
I feel it dear,
but I am not a[G]fraid
[D]step, step right over the l[G]ine
and onto borrowed t[D]ime
when itís life, not waiting to d[G]ie
[D]waiting to divide to d[G]ivide
( Tab from: http://www.guitartabs.cc/tabs/a/a_fine_frenzy/borrowed_time_tab.html )
but you say youíre getting [D]tired
youíre tired and so am [G]I
when you fall Iíll fall [D]behind
[D] [G] [D] [G]  
[D]step, step right over the l[G]ine
onto borrowed t[D]ime
when itís life, not waiting to d[G]ie
N.C. D
waiting to divide to divide
[G]  
but you say youíre getting t[D]ired
youíre tired and so am [G]I
when you fall Iíll fall [D]behind
Outro:
 
 e|-------------------------------------------------------------------------|
 B|-------------------------------------------------------------------------|
 G|---------3---------------3--------------3---------------3----------------|
 D|-------------------------------------------------------------------------|
 A|-----2/4-----2h4-0---2/4----2h4-0---2/4-----2h4-0---2/4-----2h4-0--------|
 E|-4\2-------2-------2------2-------2-------2-------2-------2-------2------|
 e|-------------------------------------------------------------------------|
 B|-------------------------------------------------------------------------|
 G|-----3---------------3---------------------------------------------------|
 D|-------------------------------------------------------------------------|
 A|-2/4-----2h4-0---2/4-----2h4-0-------------------------------------------|
 E|-------2-------2-------2-------2-----------------------------------------|


Important: The song above is NOT stored on the Chordie server. The original song is hosted at www.guitartabs.cc. Chordie works as a search engine and provides on-the-fly formatting. Chordie does not index songs against artists'/composers' will. To remove this song please click here.

Text color:
Chord color:
Chord grids: 
Font size:    
Page size: 

D G
Rate #1 of 7 versions

Jango Player

Login - add to songbook

SHARE PAGE  



You need to log in to post comments