Guitar Tabs, Chords and Lyrics
Server problems seems to be fixed. Chordie has been experiencing problems with songs disappearing. These issues now seems to be fixed, but still verifying the fix. If you find anything strange, please email admin@chordie.com.


A Garage Dayz Nite  Beatallica

A Garage Dayz Nite (2001)
Originaly Tabbed by Krk
Please Note: This was Tabbed by Krk Hammetson of Beatallica, and used with permission
Guitar 1 (EADGBe) - "Krk"
Guitar 2 (EADGBe) - "End Guitar"
Bass 1 (EADG) - "Kliff"
Bass 2 (EADG) - "Bass Solo"
VERSE 1 & 2 Timeing 4/4, 160 BPM
Krk (Distortion)
/ Q E S S E E E E Q E S S E E E E Q E S S E E E E Q E S S E E E E
 
 ||--------------------|-------------------|-------------------|-------------------|
 ||o-------------------|-------------------|-------------------|-------------------|
 ||--------------5-----|-------------------|-------------------|-------------------|
 ||--5---5-------5---5=|====-5---------5---|-3---3-------3---5=|====-5---------5---|
 ||o-5---5-3-3-3-3-3-5=|====-5---------5---|-3---3-------3---5=|====-5---------5---|
 ||--3---3-----------3=|====-3-3-3-3-3-3-3-|-1---1-1-1-1-1-1-3=|====-3-3-3-3-3-3-3-|

||
|Kliff (Distortion)
|| E E E E E E E E E E E E E E E E E E E E E E E E E E E E E E E E
 
 ||o-------------------|-------------------|-------------------|-------------------|
 ||--------------------|-------------------|-------------------|-------------------|
 ||------------3-3-3---|-------------------|-------------------|-------------------|
 ||o-3-3-3-3---------3-|-3-3-3-3---3-3-3-3-|-1-1-1-1---1-1-1-3-|-3-3-3-3---3-3-3-1-|

\
/Q E S S E E E E Q E S S E E E E Q E S S E E E E Q E S S E E E E
 
 |-------------------|-------------------|-------------------|-------------------|
 |-------------------|-------------------|-------------------|-------------------|
 |-------------------|-------------------|-------------------|-------------------|
 |-5---5-------5---5=|====-5---------5---|-3---3-------3---5=|====-5---------5---|
 |-5---5-3-3-3-3-3-5=|====-5---------5---|-3---3-------3---5=|====-5---------5---|
 |-3---3-----------3=|====-3-3-3-3-3-3-3-|-1---1-1-1-1-1-1-3=|====-3-3-3-3-3-3-3-|

|
| E E E E E E E E E E E E E E E E E E E E E E E E E E E E E E E E
 
 |-------------------|-------------------|-------------------|-------------------|
 |-------------------|-------------------|-------------------|-------------------|
 |-----------3-3-3---|-------------------|-------------------|---------------1-2-|
 |-3-3-3-3---------3-|-3-3-3-3---3-3-3-3-|-1-1-1-1---1-1-1-3-|-3-3-3-3---3-3-----|

\
/E S S E E E E Q E S S E E E E Q Q E S S E E E E Q E S S E E E E
 
 |-------------------|-------------------|-------------------|--------------------||
 |-------------------|-------------------|-------------------|-------------------o||
 |-5-------5==-5-5---|-7-------7==-7-7---|-------------5-----|--------------------||
 |-5-------5==-5-5---|-7-------7==-7-7---|-5---5-------5---5=|====-5---------5----||
 |-3-3-3-3-3==-3-3---|-5-5-5-5-5==-5-5---|-5---5-3-3-3-3-3-5=|====-5---------5---o||
 |-------------------|-------------------|-3---3-----------3=|====-3-3-3-3-3-3-3--||

|
|
 
 |-------------------|-------------------|-------------------|-------------------o||
 |-------------------|-------------------|-------------------|--------------------||
 |-3-3---3-3-3-3-3-4-|-5-5---5-5-5-5-5-5-|-----------3-3-3---|--------------------||
 |-------------------|-------------------|-3-3-3-3---------3-|-3-3-3-3---3-3-3-1-o||

\
BRIDGE
Krk (Distortion)
[/E] [E] [E] [E] [E] [E] [E] [E] [E] [E] [E] [E] [E] [E] [E] [E] [E] [E] [E] [E] [E] [E] [E] [E] [E] [E] [E] [E] [E] [E] [E] [E]  
 
 |-----------------|-----------------|-----------------|-----------------|
 |-----------------|-----------------|-----------------|-----------------|
 |-4-4-4-4-4-4-4-4-|-----------------|-4-4-4-4-4-4-4-3-|-4-4-4-4-4-4-4-4-|
 |-4-4-4-4-4-4-4-4-|-2-2-2-2-2-2-2-2-|-4-4-4-4-4-4-4-3-|-4-4-4-4-4-4-4-4-|
 |-2-2-2-2-2-2-2-2-|-2-2-2-2-2-2-2-2-|-2-2-2-2-2-2-2-1-|-2-2-2-2-2-2-2-2-|
 |-----------------|-0-0-0-0-0-0-0-0-|-----------------|-----------------|

|
|Kliff (Distortion)
| E E E E E E E E E E E E E E E E E E E E E E E E E E E E E E E E
 
 |-----------------|-----------------|-----------------|-----------------|
 |-----------------|-----------------|-----------------|-----------------|
 |-2-2-2-2-2-2-2-2-|-----------------|-2-2-2-2-2-2-2-1-|-2-2-2-2-2-2-2-2-|
 |-----------------|-0-0-0-0-0-0-0-0-|-----------------|-----------------|

\
[/E] [E] [E] [E] [E] [E] [E] [E] [E] [E] [E] [E] [E] [E] [E] [E] [E] [E] [E] [E] [E] [E] [E] [E] [E] [E] [E] [E] [E] [E] [E] [E]  
 
 |-----------------|-----------------|-----------------|-----------------|
 |-----------------|-----------------|-----------------|-----------------|
 |-5-5-5-5-5-5-5-5-|-2-2-2-2-2-2-2-2-|-7-7-7-7-7-7-7-7-|-7-7-7-7-7-7-7-7-|
 |-5-5-5-5-5-5-5-5-|-2-2-2-2-2-2-2-2-|-7-7-7-7-7-7-7-7-|-7-7-7-7-7-7-7-7-|
 |-3-3-3-3-3-3-3-3-|-0-0-0-0-0-0-0-0-|-5-5-5-5-5-5-5-5-|-5-5-5-5-5-5-5-5-|
 |-----------------|-----------------|-----------------|-----------------|

|
| E E E E E E E E E E E E E E E E E E E E E E E E E E E E E E E E
 
 |-----------------|-----------------|-----------------|-----------------|
 |-----------------|-----------------|-----------------|-----------------|
 |-3-3-3-3-3-3-3-3-|-0-0-0-0-0-0-0-0-|-5-5-5-5-5-5-5-5-|-5-5-5-5-5-5-5-5-|
 |-----------------|-----------------|-----------------|-----------------|

\
VERSE 3
Krk (Distortion)
/Q E S S E E E E Q E S S E E E E Q E S S E E E E Q E S S E E E E
 
 |-------------------|-------------------|-------------------|-------------------|
 |-------------------|-------------------|-------------------|-------------------|
 |-------------5-----|-------------------|-------------------|-------------5-----|
 |-5---5-------5---5=|====-5---------5===|====-5---------5---|-5---5-------5---5-|
 |-5---5-3-3-3-3-3-5=|====-5---------5===|====-5---------5---|-5---5-3-3-3-3-3-5-|
 |-3---3-----------3=|====-3-3-3-3-3-3-3=|====-3-3-3-3-3-3-3-|-3---3-----------3-|

|
|Kliff (Distortion)
| E E E E E E E E E E E E E E E E E E E E E E E E E E E E E E E E
 
 |-------------------|-------------------|-------------------|-------------------|
 |-------------------|-------------------|-------------------|-------------------|
 |-------3---3-3-3---|-------------------|-------------------|-------3---3-3-3---|
 |-3-3-3-----------3-|-3-3-3-3---3-3-3-3-|-3-3-3-3---3-3-3-1-|-3-3-3-----------3-|

\
/Q E S S E E E E Q E S S E E E E Q E S S E E E E E S S E E E E Q
 
 |-------------------|-------------------|-------------------|-------------------|
 |-------------------|-------------------|-------------------|-------------------|
 |-------------------|-------------------|-------------------|-5-------5==-5-5---|
 |-----5---------5---|-3---3-------3---5=|====-5---------5---|-5-------5==-5-5---|
 |-----5---------5---|-3---3-------3---5=|====-5---------5---|-3-3-3-3-3==-3-3---|
 |-----3-3-3-3-3-3-3-|-1---1-1-1-1-1-1-3=|====-3-3-3-3-3-3-3-|-------------------|

|
| E E E E E E E E E E E E E E E E E E E E E E E E E E E E E E E E
 
 |-------------------|-------------------|-------------------|-------------------|
 |-------------------|-------------------|-------------------|-------------------|
 |-------------------|-------------------|-------------------|-3-3---3-3-3-3-3-3-|
 |-3-3-3-3---3-3-3-3-|-1-1-1-1---1-1-1-3-|-3-3-3-3---3-3-3-3-|-------------------|

\
/E S S E E E E Q Q E S S E E E E Q E S S E E E E
 
 |-------------------|-------------------|-------------------|
 |-------------------|-------------------|-------------------|
 |-7-------7==-7-7---|-------------5-----|-------------------|
 |-7-------7==-7-7---|-5---5-------5---5=|====-5---------5---|
 |-5-5-5-5-5==-5-5---|-5---5-3-3-3-3-3-5=|====-5---------5---|
 |-------------------|-3---3-----------3=|====-3-3-3-3-3-3-3-|

|
| E E E E E E E E E E E E E E E E E E E E E E E E
 
 |-------------------|-------------------|-------------------|
 |-------------------|-------------------|-------------------|
 |-5-5---5-5-5-5-5-5-|-------3---3-3-3---|-------------------|
 |-------------------|-3-3-3-----------3-|-3-3-3-3---3-3-3-3-|

\
( Tab from: http://www.guitartabs.cc/tabs/b/beatallica/a_garage_dayz_nite_tab.html )
SOLO
Krk
/Q E S S E E E E Q E S S E E E E Q E S S E E E E Q E S S E E E E
 
 |---------------------|-------------------|---------------------------------------------|-------------------|
 |---------------------|-------------------|---------------------------------------------|-------------------|
 |-------------5-------|-------------------|---------------------------------------------|-------------------|
 |-5---5-------5----5==|====-5---------5---|-3-----------3-----------------3-----------5=|====-5-------5---5-|
 |-5---5-3-3-3-3--3-5==|====-5---------5---|-3-----------3-----------------3-----------5=|====-5-------5---5-|
 |-3---3------------3==|====-3-3-3-3-3-3-3-|-1-----------1-----1--1--1-----1-----1-----3=|====-3-3-3-3-3-3-3-|

|
|Kliff
| E E E E E E E E E E E E E E E E E E E E E E E E E E E E E E E E
 
 |---------------------|-------------------|---------------------------------------------|-------------------|
 |---------------------|-------------------|---------------------------------------------|-------------------|
 |-----------3-3--3----|-------------------|---------------------------------------------|-------------------|
 |-3-3-3-3----------3--|-3-3-3-3---3-3-3-3-|-1-----1-----1-----1-----1-----1-----1-----3-|-3-3-3-3---3-3-3-1-|

|
|Solo Bass
| Q. E E E E E W S S S S S S S S S S S S S S E W
 
 |---------------------|-------------------|-------10-------10-------10-------10---------|-------------------|
 |-----------8-10-8-12=|==================-|-10-12----10-12----10-12----10-12----10-12-8-|-------------------|
 |-10----10------------|-------------------|---------------------------------------------|-10----------------|
 |---------------------|-------------------|---------------------------------------------|-------------------|

\
/Q E S S E E E E Q E S S E E E E Q E S S E E E E Q E S S E E E E
 
 |---------------------|-------------------|---------------------------------------------|-------------------|
 |---------------------|-------------------|---------------------------------------------|-------------------|
 |-------------5-------|-------------------|---------------------------------------------|-------------------|
 |-5---5-------5----5==|====-5---------5---|-3-----------3-----------------3-----------5=|====-5-------5---5-|
 |-5---5-3-3-3-3--3-5==|====-5---------5---|-3-----------3-----------------3-----------5=|====-5-------5---5-|
 |-3---3------------3==|====-3-3-3-3-3-3-3-|-1-----------1-----1--1--1-----1-----1-----3=|====-3-3-3-3-3-3-3-|

|
| E E E E E E E E E E E E E E E E E E E E E E E E E E E E E E E E
 
 |---------------------|-------------------|---------------------------------------------|-------------------|
 |---------------------|-------------------|---------------------------------------------|-------------------|
 |-----------3-3--3----|-------------------|---------------------------------------------|-------------------|
 |-3-3-3-3----------3--|-3-3-3-3---3-3-3-3-|-1-----1-----1-----1-----1-----1-----1-----3-|-3-3-3-3---3-3-3-1-|

|
| Q. E E E E E W S S S S S S S S S S S S S S E
 
 |---------------------|-------------------|-------10-------10-------10-------10---------|-------------------|
 |-----------8-10-8-12=|==================-|-10-12----10-12----10-12----10-12----10-12-8-|-------------------|
 |-10----10------------|-------------------|---------------------------------------------|-10----------------|
 |---------------------|-------------------|---------------------------------------------|-------------------|

\
/E S S E E E E Q E S S E E E E Q Q E S S E E E E Q E S S E E E E
 
 |-------------------|-------------------|-------------------|-------------------|
 |-------------------|-------------------|-------------------|-------------------|
 |-5-------5==-5-5---|-7-------7==-7-7---|-------------5-----|-------------------|
 |-5-------5==-5-5---|-7-------7==-7-7---|-5---5-------5---5=|====-5---------5---|
 |-3-3-3-3-3==-3-3---|-5-5-5-5-5==-5-5---|-5---5-3-3-3-3-3-5=|====-5---------5---|
 |-------------------|-------------------|-3---3-----------3=|====-3-3-3-3-3-3-3-|

|
| E E E E E E E E E E E E E E E E E E E E E E E E E E E E E E E E
 
 |-------------------|-------------------|-------------------|-------------------|
 |-------------------|-------------------|-------------------|-------------------|
 |-3-3---3-3-3-3-3-4-|-5-5---5-5-5-5-5-5-|-----------3-3-3---|-------------------|
 |-------------------|-------------------|-3-3-3-3---------3-|-3-3-3-3---3-3-3-3-|

\
BRIDGE 2
Krk
[/E] [E] [E] [E] [E] [E] [E] [E] [E] [E] [E] [E] [E] [E] [E] [E] [E] [E] [E] [E] [E] [E] [E] [E] [E] [E] [E] [E] [E] [E] [E] [E]  
 
 |-----------------|-----------------|-----------------|-----------------|
 |-----------------|-----------------|-----------------|-----------------|
 |-4-4-4-4-4-4-4-4-|-----------------|-4-4-4-4-4-4-4-3-|-4-4-4-4-4-4-4-4-|
 |-4-4-4-4-4-4-4-4-|-2-2-2-2-2-2-2-2-|-4-4-4-4-4-4-4-3-|-4-4-4-4-4-4-4-4-|
 |-2-2-2-2-2-2-2-2-|-2-2-2-2-2-2-2-2-|-2-2-2-2-2-2-2-1-|-2-2-2-2-2-2-2-2-|
 |-----------------|-0-0-0-0-0-0-0-0-|-----------------|-----------------|

|
|Kliff
| E E E E E E E E E E E E E E E E E E E E E E E E E E E E E E E E
 
 |-----------------|-----------------|-----------------|-----------------|
 |-----------------|-----------------|-----------------|-----------------|
 |-2-2-2-2-2-2-2-2-|-----------------|-2-2-2-2-2-2-2-1-|-2-2-2-2-2-2-2-2-|
 |-----------------|-0-0-0-0-0-0-0-0-|-----------------|-----------------|

\
[/E] [E] [E] [E] [E] [E] [E] [E] [E] [E] [E] [E] [E] [E] [E] [E] [E] [E] [E] [E] [E] [E] [E] [E] [E] [E] [E] [E] [E] [E] [E] [E]  
 
 |-----------------|-----------------|-----------------|-----------------|
 |-----------------|-----------------|-----------------|-----------------|
 |-5-5-5-5-5-5-5-5-|-2-2-2-2-2-2-2-2-|-7-7-7-7-7-7-7-7-|-7-7-7-7-7-7-7-7-|
 |-5-5-5-5-5-5-5-5-|-2-2-2-2-2-2-2-2-|-7-7-7-7-7-7-7-7-|-7-7-7-7-7-7-7-7-|
 |-3-3-3-3-3-3-3-3-|-0-0-0-0-0-0-0-0-|-5-5-5-5-5-5-5-5-|-5-5-5-5-5-5-5-5-|
 |-----------------|-----------------|-----------------|-----------------|

|
| E E E E E E E E E E E E E E E E E E E E E E E E E E E E E E E E
 
 |-----------------|-----------------|-----------------|-----------------|
 |-----------------|-----------------|-----------------|-----------------|
 |-3-3-3-3-3-3-3-3-|-0-0-0-0-0-0-0-0-|-5-5-5-5-5-5-5-5-|-5-5-5-5-5-5-5-5-|
 |-----------------|-----------------|-----------------|-----------------|

\
VERSE 4
Krk
/Q E S S E E E E Q E S S E E E E Q E S S E E E E Q E S S E E E E
 
 |-------------------|-------------------|-------------------|-------------------|
 |-------------------|-------------------|-------------------|-------------------|
 |-------------5-----|-------------------|-------------------|-------------------|
 |-5---5-------5---5=|====-5---------5---|-3---3-------3---5=|====-5---------5---|
 |-5---5-3-3-3-3-3-5=|====-5---------5---|-3---3-------3---5=|====-5---------5---|
 |-3---3-----------3=|====-3-3-3-3-3-3-3-|-1---1-1-1-1-1-1-3=|====-3-3-3-3-3-3-3-|

|
|Kliff
| E E E E E E E E E E E E E E E E E E E E E E E E E E E E E E E E
 
 |-------------------|-------------------|-------------------|-------------------|
 |-------------------|-------------------|-------------------|-------------------|
 |-----------3-3-3---|-------------------|-------------------|-------------------|
 |-3-3-3-3---------3-|-3-3-3-3---3-3-3-3-|-1-1-1-1---1-1-1-3-|-3-3-3-3---3-3-3-1-|

\
/Q E S S E E E E Q E S S E E E E Q E S S E E E E Q E S S E E E E
 
 |-------------------|-------------------|-------------------|-------------------|
 |-------------------|-------------------|-------------------|-------------------|
 |-------------5-----|-------------------|-------------------|-------------------|
 |-5---5-------5---5=|====-5---------5---|-3---3-------3---5-|-----5---------5---|
 |-5---5-3-3-3-3-3-5=|====-5---------5---|-3---3-------3---5-|-----5---------5---|
 |-3---3-----------3=|====-3-3-3-3-3-3-3-|-1---1-1-1-1-1-1-3-|-----3-3-3-3-3-3-3-|

|
| E E E E E E E E E E E E E E E E E E E E E E E E E E E E E E E E
 
 |-------------------|-------------------|-------------------|-------------------|
 |-------------------|-------------------|-------------------|-------------------|
 |-----------3-3-3---|-------------------|-------------------|---------------1-2-|
 |-3-3-3-3---------3-|-3-3-3-3---3-3-3-3-|-1-1-1-1---1-1-1-3-|-3-3-3-3---3-3-----|

\
/E S S E E E E Q E S S E E E E Q Q E S S E E E E Q E S S E E E E
 
 |-------------------|-------------------|-------------------|-------------------|
 |-------------------|-------------------|-------------------|-------------------|
 |-5-------5==-5-5---|-7-------7==-7-7---|-----5-------5-----|-------------------|
 |-5-------5==-5-5---|-7-------7==-7-7---|-5---5-------5---5=|====-5---------5---|
 |-3-3-3-3-3==-3-3---|-5-5-5-5-5==-5-5---|-5---3-3-3-3-3-3-5=|====-5---------5---|
 |-------------------|-------------------|-3---------------3=|====-3-3-3-3-3-3-3-|

|
| E E E E E E E E E E E E E E E E E E E E E E E E E E E E E E E E
 
 |-------------------|-------------------|-------------------|-------------------|
 |-------------------|-------------------|-------------------|-------------------|
 |-3-3---3-3-3-3-3-4-|-5-5---5-5-5-5-5-5-|-----------3-3-3---|-------------------|
 |-------------------|-------------------|-3-3-3-3---------3-|-3-3-3-3---3-3-3-3-|

\
/Q E S S E E E E Q E S S E E E E Q E S S E E E E
 
 |-------------------|-------------------|-------------------|
 |-------------------|-------------------|-------------------|
 |-------------5-----|-------------------|-------------5-5---|
 |-5---5-------5---5=|====-5---------5---|-5---5-------5-5---|
 |-5---5-3-3-3-3-3-5=|====-5---------5---|-5---5-3-3-3-3-3---|
 |-3---3-----------3=|====-3-3-3-3-3-3-3-|-3---3-------------|

|
| E E E E E E E E E E E E E E E E E E E E E E E E
 
 |-------------------|-------------------|-------------------|
 |-------------------|-------------------|-------------------|
 |-----------3-3-3---|-------------------|-----------3-3-3---|
 |-3-3-3-3---------3-|-3-3-3-3---3-3-3-3-|-3-3-3-3---------3-|

\
END
Krk
/W W
 
 |-------------------------|-------------------------|
 |-------------------------|-------------------------|
 |-------------------------|-------------------------|

|-3=======================|=========================|
|-3=======================|=========================|
|-1=======================|=========================|
|
|Kliff
| W W
 
 |-------------------------|-------------------------|
 |-------------------------|-------------------------|
 |-------------------------|-------------------------|

|-1=======================|========================-|
|
|End Guitar
| E E E E E E E E E E E E E E E E
 
 |-------------------------|-------------------------|
 |-------------------------|-------------------------|
 |-12----14----10----------|-12----14----10----------|
 |----10----10----10----10-|----10----10----10----10-|
 |-------------------12----|-------------------12----|
 |-------------------------|-------------------------|

\
Key
[---]  
h - Hammer On
p - Pull Off
b - Bend
pb- Pre bend
r - Release Bend
/\-slide into or out of
* - Artificial Harmonic
~ - Vibrato
. - Palm Mute
= - Hold note
x - muted

Important: The song above is NOT stored on the Chordie server. The original song is hosted at www.guitartabs.cc. Chordie works as a search engine and provides on-the-fly formatting. Chordie does not index songs against artists'/composers' will. To remove this song please click here.

Text color:
Chord color:
Chord grids: 
Font size:    
Page size: 

E
Rate #1 of 3 versions

Login - add to songbook

SHARE PAGE  




You need to log in to post comments