Guitar Tabs, Chords and Lyrics
Server problems seems to be fixed. Chordie has been experiencing problems with songs disappearing. These issues now seems to be fixed, but still verifying the fix. If you find anything strange, please email admin@chordie.com.


Glass House  Blackfield

 
 -----------------------------------------------------------------------------

Artist - Blackfield
*********************
Song - Glass House
********************
Album - Welcome To My DNA
***************************
Tabbed By - Ayreon77
**********************
 
 -----------------------------------------------------------------------------

There are 2 versions of this song on here,
and i think that they both sound wrong
Hopefully this is an improvment.
VERSE 1
********
[D]Goodbye old friend, my paranoid
We'll [G]meet again someday
[F#m]Life is running [B]out
I [D]guess I had [G]enough, I need to go [Em]now
 
 ----------------------------------------------

Small Solo
***********
[Em] [Cm] [Bb] [Em] [Cm] [Bb]  
 
 e|---------br----------|---------br----------|
 B|-12-----12-----------|-12-----12-----------|
 G|------------12-12-10-|------------12-12-10-|
 D|---------------------|---------------------|
 A|---------------------|---------------------|
 E|---------------------|---------------------|
 ----------------------------------------------

VERSE 2
********
I [D]used to live in a house of glass
Where [G]no one comes or goes
[F#m]Watching life [Bb]outside
I [D]used to stand behind the door
And [G]hope the wind won't blow
And [F#m]mess my fears [B]around
It [D]took me so long to [G]find out where they're [Em]hiding.
( Tab from: http://www.guitartabs.cc/tabs/b/blackfield/glass_house_tab_ver_2.html )
 
 ----------------------------------------------

Small Solo
***********
[Em] [Cm] [Bb] [Em] [Cm] [Bb]  
 
 e|---------br----------|---------br----------|
 B|-12-----12-----------|-12-----12-----------|
 G|------------12-12-10-|------------12-12-10-|
 D|---------------------|---------------------|
 A|---------------------|---------------------|
 E|---------------------|---------------------|
 ----------------------------------------------

BRIDGE
*******
[Fm]Music like rain
Over [Cm]my deepest feelings
Are you're [Bb]faking that
[Fm]Music like rain
Over [Cm]my deepest feelings
Are you're [Bb]faking that
[Cm]Faking [Em]that.
 
 ----------------------------------------------

Small Solo
***********
[Em] [Cm] [Bb] [Em] [Cm] [Bb]  
 
 e|---------br----------|---------br----------|
 B|-12-----12-----------|-12-----12-----------|
 G|------------12-12-10-|------------12-12-10-|
 D|---------------------|---------------------|
 A|---------------------|---------------------|
 E|---------------------|---------------------|

D Cm G F#m Em B(X2)
 
 ----------------------------------------------

VERSE 3
********
[D]Goodbye old friend, my paranoid
We'll [G]meet again someday
[F#m]Life is running [B]out
I [D]guess I had [G]enough, I need to go [Em]now
 
 ----------------------------------------------

Small Solo
***********
[Em] [Cm] [Bb] [Em] [Cm] [Bb]  
 
 e|---------br----------|---------br----------|
 B|-12-----12-----------|-12-----12-----------|
 G|------------12-12-10-|------------12-12-10-|
 D|---------------------|---------------------|
 A|---------------------|---------------------|
 E|---------------------|---------------------|

ENJOY.......

Important: The song above is NOT stored on the Chordie server. The original song is hosted at www.guitartabs.cc. Chordie works as a search engine and provides on-the-fly formatting. Chordie does not index songs against artists'/composers' will. To remove this song please click here.

Text color:
Chord color:
Chord grids: 
Font size:    
Page size: 

B Bb Cm D Em F#m Fm G
Rate #1 of 5 versions

Jango Player

Login - add to songbook

SHARE PAGE  




You need to log in to post comments