Guitar Tabs, Chords and Lyrics
Server problems seems to be fixed. Chordie has been experiencing problems with songs disappearing. These issues now seems to be fixed, but still verifying the fix. If you find anything strange, please email admin@chordie.com.


Scars  Blackfield

Artist - Blackfield
**********************
Song - Scars
**************
Album - Blackfield
********************
Tabbed By - Ayreon77
**********************
Im not 100% on the chords, if any one got any better suggestions,
let me know, Thx.
INTRO - Drum & Bass
 
 -----------------------------------------

[Em]Brightest city buried [D#m]in the dust
[Em]Lonely people stop and [D#m]stare at us
[Bm]Together you and me are [F#m]getting lost
[Bm]The sky falls[F#m]
 
 -----------------------------------------

VERSE 2
********
[Em]It's getting hard for me to [D#m]see the truth
[Em]I lost my soul and gave [D#m]myself to you
[Bm]You are an angel and the [F#m]Devil too
A [Bm]tear falls[F#m]
Picking through verse
[Em] [D#m] [Em] [D#m]  
 
 [---------|---------|---------|---------]
 [-------0-|-------0-|-------0-|-------0-]
 [-----7---|-----6---|-----7---|-----6---]
 [---5-----|---4-----|---5-----|---4-----]
 [-7-------|-6-------|-7-------|-6-------]
 [---------|---------|---------|---------]

[Bm] [F#m] [Bm] [E]  
 
 [---------|---------|---------|-0------]
 [-------0-|-------0-|-------0-|--0-----]
 [-----4---|-----4---|-----4---|---1----]
 [---4-----|---4-----|---4-----|----2---]
 [-5-------|-4-------|-5-------|-----2--]
 [---------|---------|---------|------0-]
 -----------------------------------------

CHORUS
*******
[E]All I left are my precious scars[Bm] [F#m] [Em]
[E]All I left are my precious scars[Bm] [F#m] [Em]
 
 -----------------------------------------

[Em] [D#m] [Em] [D#m]  
 
 [---------|---------|---------|---------]
 [-------0-|-------0-|-------0-|-------0-]
 [-----7---|-----6---|-----7---|-----6---]
 [---5-----|---4-----|---5-----|---4-----]
 [-7-------|-6-------|-7-------|-6-------]
 [---------|---------|---------|---------]
 -----------------------------------------

VERSE 3
********
[Em]I watch a teardrop falling [D#m]from your eyes
[Em]You are so perfect when you [D#m]cry
[Bm]In the corner all our [F#m]endings lie
[Bm]Alone now[F#m]
Picking through verse
[Em] [D#m] [Em] [D#m]  
 
 [---------|---------|---------|---------]
 [-------0-|-------0-|-------0-|-------0-]
 [-----7---|-----6---|-----7---|-----6---]
 [---5-----|---4-----|---5-----|---4-----]
 [-7-------|-6-------|-7-------|-6-------]
 [---------|---------|---------|---------]

[Bm] [F#m] [Bm] [E]  
 
 [---------|---------|---------|-0------]
 [-------0-|-------0-|-------0-|--0-----]
 [-----4---|-----4---|-----4---|---1----]
 [---4-----|---4-----|---4-----|----2---]
 [-5-------|-4-------|-5-------|-----2--]
 [---------|---------|---------|------0-]
 -----------------------------------------

CHORUS
*******
 
 -----------------------------------------

[Em] [F#m] [Em] [F#m]  
 
 -----------------------------------------

BRIDGE
*******
It's [Em]me that you need [F#m]now
[Em] [F#m]  
It's [Em]me that you love [F#m]now
[Em] [F#m]  
 
 -----------------------------------------

CHORUS
*******
 
 -----------------------------------------

PRE CHORUS
***********
[E]All I left are my precious scars
[Bm]I wish I was immune then it wouldn't [F#m]hurt[Em]
[E]All I left are my precious scars
[Bm]I wish I was immune then it wouldn't [F#m]hurt[Em]
 
 -----------------------------------------

SOLO - E Bm F#m Em X2
 
 [----------------------------------------------]
 [---h-----rb----------rb------------rb---------]
 [-11-13--14-13-14-14--14-13-14-14--14-13-14-12-]
 [----------------------------------------------]
 [----------------------------------------------]
 [----------------------------------------------]X2

I [Bm]wish I was immune then it wouldn't [F#m]hurt

Important: The song above is NOT stored on the Chordie server. The original song is hosted at www.guitartabs.cc. Chordie works as a search engine and provides on-the-fly formatting. Chordie does not index songs against artists'/composers' will. To remove this song please click here.

Text color:
Chord color:
Chord grids: 
Font size:    
Page size: 

Bm D#m E Em F#m
Rate #0 of 2 versions

Jango Player

Login - add to songbook

SHARE PAGE  




You need to log in to post comments