Guitar Tabs, Chords and Lyrics
Server problems seems to be fixed. Chordie has been experiencing problems with songs disappearing. These issues now seems to be fixed, but still verifying the fix. If you find anything strange, please email admin@chordie.com.


Some Day  Blackfield

verse 1:
When you were a boy
You had no place inside your parents' world
You were falling like the leaves
From an old and dying tree
 
 e|---3-----3-----3-----3-----3-----3-----3-----3-----3-----3-----3-----3-----3-----3---|
 B|--3-3---3-3---3-3---3-3---3-3---3-3---3-3---3-3---3-3---3-3---3-3---1-1---1-1---1-1--|
 G|-3---3-3---3-3---3-3---3-2---2-2---2-2---2-2---2-3---3-3---3-3---3-2---2-2---2-2---2-|
 D|5-----5-----5-----5-----3-----3-----3-----3-----2-----2-----2-----1-----1-----1-----1|
 A|-------------------------------------------------------------------------------------|
 E|-------------------------------------------------------------------------------------|

verse 2:
You went to school
But the teachers made you feel a fool
While the children played with joy
You were the one they would avoid
 
 e|---3-----3-----3-----3-----3-----3-----3-----3-----3-----3-----3-----3-----3-----3---|
 B|--3-3---3-3---3-3---3-3---3-3---3-3---3-3---3-3---3-3---3-3---3-3---1-1---1-1---1-1--|
 G|-3---3-3---3-3---3-3---3-2---2-2---2-2---2-2---2-3---3-3---3-3---3-2---2-2---2-2---2-|
 D|5-----5-----5-----5-----3-----3-----3-----3-----2-----2-----2-----1-----1-----1-----1|
 A|-------------------------------------------------------------------------------------|
 E|-------------------------------------------------------------------------------------|

chorus:
[Gm]Some [Dm]day
[F]You will find a [Cm]better place to [Gm]stay
[F]You'll never need to [Cm]feel this way aga[Gm]in
[Dm]Again[F], aga[Cm]in
verse 3:
Show a smile
They'd like to have you in their members' club
They'll buy you drinks and tell you lies
They pour rumbrella with some ice
 
 e|---3-----3-----3-----3-----3-----3-----3-----3-----3-----3-----3-----3-----3-----3---|
 B|--3-3---3-3---3-3---3-3---3-3---3-3---3-3---3-3---3-3---3-3---3-3---1-1---1-1---1-1--|
 G|-3---3-3---3-3---3-3---3-2---2-2---2-2---2-2---2-3---3-3---3-3---3-2---2-2---2-2---2-|
 D|5-----5-----5-----5-----3-----3-----3-----3-----2-----2-----2-----1-----1-----1-----1|
 A|-------------------------------------------------------------------------------------|
 E|-------------------------------------------------------------------------------------|

verse 4:
No one cares
About that fucking pretty face you have
It means nothing much this life
So find the highest cliff and dive
 
 e|---3-----3-----3-----3-----3-----3-----3-----3-----3-----3-----3-----3-----3-----3---|
 B|--3-3---3-3---3-3---3-3---3-3---3-3---3-3---3-3---3-3---3-3---3-3---1-1---1-1---1-1--|
 G|-3---3-3---3-3---3-3---3-2---2-2---2-2---2-2---2-3---3-3---3-3---3-2---2-2---2-2---2-|
 D|5-----5-----5-----5-----3-----3-----3-----3-----2-----2-----2-----1-----1-----1-----1|
 A|-------------------------------------------------------------------------------------|
 E|-------------------------------------------------------------------------------------|

chorus x3:
[Gm]Some [Dm]day
[F]You will find a [Cm]better place to [Gm]stay
[F]You'll never need to [Cm]feel this way aga[Gm]in
[Dm]Again[F], aga[Cm]in

Important: The song above is NOT stored on the Chordie server. The original song is hosted at www.guitartabs.cc. Chordie works as a search engine and provides on-the-fly formatting. Chordie does not index songs against artists'/composers' will. To remove this song please click here.

Text color:
Chord color:
Chord grids: 
Font size:    
Page size: 

Cm Dm F Gm
Rate #2 of 7 versions

Jango Player

Login - add to songbook

SHARE PAGE  



You need to log in to post comments