Guitar Tabs, Chords and Lyrics
Major upgrade!! After one year development the new version of Chordie is now online! Please give feedback.


Misunderstood  Bon Jovi

 
 --------------

[G]Should I?[D/F#] Could I?[Em]
Have said the wrong things [D]right a thousand times[C]
If I could just re[C/B]wind, I see it in my [Am]mind
If I could turn back time, you'd still be mine
[G]You cried,[D/F#] I died[Em]
I should have shut my [D]mouth, things headed sou[C]th
As the words slipped off my [C/B]tongue, they sounded [Am]dumb
If this old heart could talk, it'd say you're the one
[Am]I'm wasting time whe[C]n I think about it
[Em]I sho[C]uld have drove all [G]night,
I would have run all the [D/F#]lights
I was misunderstood
[Em]I st[C]umbled like my [G]words,
Did the best I [D]could
[C]Damn, misunders[Am]tood
[G]Could[D/F#] I? Should I?[Em]
Apologize for [D]sleeping on the couch that night[C]
Staying out too late with [C/B]all my friends[Am]
You found me passed out in the yard again
[G]You crie[D/F#]d, I tried[Em]
To stretch the truth, but [D]didn't lie
[Am]It's not so bad [C]when you think about it
[Em]I sho[C]uld have drove all [G]night,
I would have run all the [D/F#]lights
I was misunderstood
[Em]I st[C]umbled like my [G]words,
Did the best I [D]could
[C]Damn, misunders[Am]tood
Intentions[C] good
[G] [D/F#] [Em] [D]  
 
 e-|-------------------|-----------------|-------------|--------
 B-|-------------------|-----------------|-------------|--------
 G-|-------------------|-----------------|-------------|--------
 D-|--5-5-5-5--7--7/9/7|--7---5---7---4--|-----5-5-----|--------
 A-|-------------------|-----------------|--7-------7-5|--------
 E-|-------------------|-----------------|-------------|-7-5----

[C] [C/B] [Am]  
 
 e-|-------------------|-------------------|-----------------
 B-|-------------------|-------------------|-----------------
 G-|-------------------|-------------------|-----------------
 D-|-------------------|-------------------|-----------------
 A-|-------------------|-------------------|-----------------
 E-|-8--10/12/10-------|-10--3--5-5/7--7---|-5-5---/3--5-----

[Am]It's you and I,[C] just think about it...
[Em]I sho[C]uld have drove all [G]night,
I would have run all the [D/F#]lights
I was misunderstood
[Em]I st[C]umbled like my [G]words,
Did the best I [D]could
[Em]I 'm[C] hanging outside your [G]door
I've been here be[D/F#]fore
Misunders[Em]tood
I s[C]tumbled like my [G]words, did the best I [D]could
[C]Damn, misunderst[Am]ood
Intentions[C] good
 
 -------------------------------

Transcribed by Felipe Fontoura
bonj0vi@yahoo.com.br
ICQ 60257367

Important: The song above is NOT stored on the Chordie server. The original song is hosted at www.guitartabs.cc. Chordie works as a search engine and provides on-the-fly formatting. Chordie does not index songs against artists'/composers' will. To remove this song please click here.

Text color:
Chord color:
Chord grids: 
Font size:    
Page size: 

Am C C/B D D/F# Em G
Rate #2 of 18 versions

Jango Player

Login - add to songbook

SHARE PAGE  




You need to log in to post comments