Guitar Tabs, Chords and Lyrics
Major upgrade!! After one year development the new version of Chordie is now online! Please give feedback.


Wild Is the Wind   Bon Jovi

 
 e[---------------------------------------
 B[---8p7----8p7---------12-12h13-12~~----
 G[---9------9-----------12-12------------
 D[---------------------------------------
 A[---------------------------------------
 E[-0------0-------0-2-3------------------
 e[------------------------------------------------------
 B[---------------------------12-13-13-13-12-------------
 G[-----12-11h12p11-7~~~---------------------------------
 D[---------------------7--------------------------------
 A[------------------------------------------------------
 E[-/10--------------------------------------------------

 


 


 Pre-Chorus


 

 
 e[------------------------------------------------------
 B[------------------------------------------------------
 G[------------------------------------------------------
 D[-3-----3---3--7-----7---7--5-----5---5----------------
 A[-3-----3---3--7-----7---7--5-----5---5----------------
 E[-1-1-1-1-1-1--5-5-5-5-5-5--3-3-3-3-3-3-3-3-3-3-3-3-3--

 


 PM.. PM PM.. PM PM.. PM PM............


 


 Chorus (1st Chorus once, 2nd chorus 2x)


 

 
 e[--------------------------------------------------------
 B[--------------------------------------------------------
 G[-5----------------5--4--2-------------------------------
 D[-5----5---7---3---5--4--2--3--5-5-5-5-4-4-4-4-2-2-2-2---
 A[-3----5---7---3---3--2--0--3--3-3-3-3-2-2-2-2-0-0-0-0---
 E[------3---5---1------------1----------------------------

 


 PM......................


 


 

 
 e[------------------------------------------------------
 B[------------------------------------------------------
 G[------------------------------------------------------
 D[---------3-----5--------------------------------------
 A[-5-5-5-5-3-----5--------------------------------------
 E[-3-3-3-3-1-----3--------------------------------------

 


 


 Post-chorus


 

 
 e[------------------------------------------------------
 B[------------------------------------------------------
 G[-5----------------------------------------------------
 D[-5----5---7---3----5-5-5-5-5-5-9-9-9-9-9-9------------
 A[-3----5---7---3----3-3-3-3-3-3-7-7-7-7-7-7------------
 E[------3---5---1---------------------------------------

 


 


 Play this part 3x


 

 
 e[------------------------------------------------------
 B[------------------------------------------------------
 G[------------------------------------------------------
 D[-3---5-7---10-10-10-9-9h10p9\7-7----------------------
 A[-3---5-7---10-10-10-9-9h10p9\7-7----------------------
 E[-1---3-5----------------------------------------------

 


 


 Verse


 This time, Richie plays this (I think Jon plays the original verse part under


 him on an acoustic guitar, 2x)


 

 
 e[----------------------------------------------------------
 B[----------------------------------------------------------
 G[-16-16-16-14-14-14-12-12-12---16-16-16-14-14-14-12-12-12--
 D[----------------------------------------------------------
 A[----------------------------------------------------------
 E[----------------------------------------------------------

 


 


 Pre-chorus


 


 Chorus (x2)


 


 Post-chorus


 


 GUITAR SOLO (I'm not 100% sure on this)


 

 
 e[-17~~~~~15~~~~~----------------------------22~~~20~~~--------
 B[---------------17~~~~~~-17-18-17-15-13~~~~-----------17~~~~--
 G[-------------------------------------------------------------
 D[-------------------------------------------------------------
 A[-------------------------------------------------------------
 E[-------------------------------------------------------------
 e[----------17----17----17----17----------------------------
 B[-18-18-18----17----15----13----12~~~-12-13-12-------------
 G[----------------------------------------------14-14~~~~---
 D[----------------------------------------------------------
 A[----------------------------------------------------------
 E[----------------------------------------------------------
 e[-------------------------------------------20b22r20-17~~~~--
 B[-------------------------------------17-18------------------
 G[-14h17p14p12h14-14h16-21p16-16-17-19------------------------
 D[------------------------------------------------------------
 A[------------------------------------------------------------
 E[------------------------------------------------------------

 


 


 Pre-chorus


 


 Chorus (x2)


 


 Post chorus (x?)


 


 OUTRO SOLO (x2[?])


 

 
 e[-17~~~~~15~~~~~-------------------------22~~~20~~~---------
 B[---------------17~~~~~~-17-18-17-15-13-------------17~~~---
 G[-----------------------------------------------------------
 D[-----------------------------------------------------------
 A[-----------------------------------------------------------
 E[-----------------------------------------------------------
 e[-17~~~~~15~~~~~17~~~~~--------------------------------
 B[------------------------------------------------------
 G[------------------------------------------------------
 D[------------------------------------------------------
 A[------------------------------------------------------
 E[------------------------------------------------------


Important: The song above is NOT stored on the Chordie server. The original song is hosted at www.guitartabs.cc. Chordie works as a search engine and provides on-the-fly formatting. Chordie does not index songs against artists'/composers' will. To remove this song please click here.

This song is displayed as text-only. Transposing and tuning is only available for chordpro-songs.
Rate #0 of 5 versions

Login - add to songbook

SHARE PAGE  



You need to log in to post comments