Guitar Tabs, Chords and Lyrics
Major upgrade!! After one year development the new version of Chordie is now online! Please give feedback.


Without Love   Bon Jovi

 
 e[-------------------------------------------------------
 B[-------------------------------------------------------
 G[-------------------------------------------------------
 D[-------------------------------------------------------
 A[/////////////////////----------------------------------
 E[/////////////////////----------------------------------

 


 


 Intro


 Guitar 1 (x2)


 

 
 e[-------------------------------------------------------
 B[--3---3---3--------------------------------------------
 G[--2---2---2--------------4---4---4---------------------
 D[--0-x-0-x-0--------------4---4---4---------------------
 A[--0-x-0-x-0-----0-0-0-0--2-x-2-x-2---------------------
 E[----------------0-0-0-0--2-x-2-x-2---------------------

 


 PM.......


 


 Guitar 2 (Keyboard) 4 times


 

 
 e[-------------------------------------------------------
 B[---7---------10-----7-7-8-8-10-10-10-10----------------
 G[---------9----------7-7-7-7-7--7--7--7-----------------
 D[-------------------------------------------------------
 A[-------------------------------------------------------
 E[-------------------------------------------------------

 


 


 Guitar 1


 

 
 e[----------------------------------------------------
 B[----------------------------------------------------
 G[------2---------------------------------------------
 D[--4---2---2-----------------------------------------
 A[--4---0---2-----------------------------------------
 E[--2-------0-----------------------------------------

 


 


 Verse (x2)


 Guitar 1 (Palm muted all the way through verse)


 

 
 e[------------------------------------------------------
 B[------------------------------------------------------
 G[--2-2-2-2-2-2-2-2-------------------------------------
 D[--0-0-0-0-0-0-0-0-4-4-4-4-4-4-4-4---------------------
 A[------------------2-2-2-2-2-2-2-2---------------------
 E[------------------------------------------------------

 


 


 Guitar 2 (Keyboard?) Four times


 

 
 e[------------------------------------------------------
 B[--7---------------------------------------------------
 G[----7--9--14--11----12--9--11-------------------------
 D[------------------------------------------------------
 A[------------------------------------------------------
 E[------------------------------------------------------

 


 


 Pre-chorus Improvise a strumming pattern


 

 
 e[------------------------------------------------------
 B[------------------------------------------------------
 G[------------------------------------------------------
 D[---7---------9------10------12------------------------
 A[---7---------9------10------12------------------------
 E[---5---------7------8-------10------------------------

 


 


 Chorus


 

 
 e[-----------------------------------------------------------
 B[--3---3---3------------------------------------------------
 G[--2---2---2----------4---4---4-----------------------------
 D[--0-x-0-x-0----------4---4---4------------5---5---5----7---
 A[--0-x-0-x-0-0-0-0-0--2-x-2-x-2------------5-x-5-x-5----7---
 E[------------0-0-0-0--2-x-2-x-2---2-2-2-2--3-x-3-x-3----5---

 


 PM...... PM.......


 Intro, and then verse again


 


 Chorus


 


 SOLO


 

 
 e[---------------------------------------------------
 B[---------------------------------------------------
 G[---6---7-9---6---7-9----6b7r6-4~~~~---6b7r6--------
 D[---------------------------------------------7~~~~-
 A[---------------------------------------------------
 E[---------------------------------------------------
 e[---------------------------------------------------
 B[---14---15-17---14---15-17-------------------------
 G[---------------------------------------------------
 D[---------------------------------------------------
 A[---------------------------------------------------
 E[---------------------------------------------------
 e[-------17-----17-----17--17b19-----17~~~~~~~~----------
 B[--14h15--14h15--14h15----------------------------------
 G[-------------------------------------------------------
 D[-------------------------------------------------------
 A[-------------------------------------------------------
 E[-------------------------------------------------------

 


 


 Post-solo Play Guitar Part 2 twice, then this


 

 
 e[----------------------------------------------------
 B[----------------------------------------------------
 G[----------------------------------------------------
 D[----------------------------------------------------
 A[----5-5-5-5-5-5-5-5-7-7-7-7-7-7-7-7-7---------------
 E[----3-3-3-3-3-3-3-3-5-5-5-5-5-5-5-5-5---------------


Important: The song above is NOT stored on the Chordie server. The original song is hosted at www.guitartabs.cc. Chordie works as a search engine and provides on-the-fly formatting. Chordie does not index songs against artists'/composers' will. To remove this song please click here.

This song is displayed as text-only. Transposing and tuning is only available for chordpro-songs.
Rate #1 of 8 versions

Jango Player

Login - add to songbook

SHARE PAGE  




You need to log in to post comments